Acordes de Guitarra » A »Andrés Calamaro » Sin Documentos (Tab)

Sin Documentos
Andrés Calamaro

Letras, Acordes y Tabs para Guitarra, Bajo y Ukulele

  •           Gm                           D
    E||---------------------------------------------------------|
    B||-3-3-3-3-4-3--------3---3-3-3-3-4-3-----------3----------|
    G||--------------3-0-3------------------2-----2-------------|
    D||----------------------------------------4----------------|
    A||---------------------------------------------------------|
    E||---------------------------------------------------------|
               D#                          D
    E||-------1-------------------------------------------------|
    B||-3-3-4---4---4-4-3--3-3-1--1-1---------------3-----------|
    G||-------------------------------3--3-2------2-------------|
    D||---------------------------------------0-4---------------|
    A||---------------------------------------------------------|
    E||---------------------------------------------------------|
    
       Gm                      D
    Dejame atravesar el viento sin documentos,
       D#                      D         D7
    que lo hare por el tiempo que tuvimos.
       Gm                      D
    
  •          SOLm                RE
    E||---------------------------------------------------------|
    B||-3-3-3-3-4-3--------3---3-3-3-3-4-3-----------3----------|
    G||--------------3---3------------------2-----2-------------|
    D||----------------5-----------------------3-----------------|
    A||---------------------------------------------------------|
    E||---------------------------------------------------------|
               DOm7                         RE
    E||--------------------------------------------------------|
    B||-3-3-4-6--4---4-3--3-------------------------------|
    G||----------------------5-5-5----3--2-------------------|
    D||---------------------------------------0-1-0--------------|
    A||---------------------------------------------------------|
    E||---------------------------------------------------------|
    
    
    
    
    SOLm                                RE
    Déjame atravesar el viento sin documentos,
    
  • E-----------------------------------------------------------------
    B---333343-----------333343----------3---33464433-----------------
    G-----------3-----3----------2----2----------------5532-----------X2
    D--------------5----------------4---------------------------------
    A-----------------------------------------------------------------
    E-----------------------------------------------------------------
    
    A)
    
       Gm                     D
    Dejame atravesar el viento sin documentos,
           Eb                D
    que lo hare por el tiempo que tuvimos.
    
    porque no queda salida, porque pareces dormida,
     porque buscando tu sonrisa estaría toda mi vida.
    
      Eb                     D
    Quiero ser el unico que te muerda la boca,
       Eb                       D
    
  • |------------3-------------------------------|
    |------3------6-3----------------------------|
    |-5^5-3----5^----5-3---5^5-3-5-3-2/3---2-----|
    |---------------------------------------5----|
    |----------------------------------------6-5-|
    |--------------------------------------------|
    
    |------------------------3-----------2-------|
    |-----------------------3-5^-2-----6^--------|
    |----3-5-5^5--3-5-3---5^------5^-5^----------|
    |-3-5--------------5-3-----------------------|
    |--------------------------------------------|
    |--------------------------------------------|
    
    |-^8-6------2--------------------------------|
    |-----8---5^-5-------2-3/5-2-----------------|
    |--------------3-5----------5^-3-5-5^5-------|
    |-------------5------------------------------|
    |-------------------------------------6-5----|
    |--------------------------------------------|
    
  • E--------
    B--------
    G-2------
    D-3------
    A-3------
    E--------
    
    Intro:
    
    E-0-0-0-0-1-0---0-0-0-0-0-1-0---0-0-0-1-3-1-1-0-0---------------
    B------------1-1-------------0-0-----------------3-3-1-0-1-3-1-0
    G-------------2---------------1---------------------------------
    D---------------------------------------------------------------
    A---------------------------------------------------------------
    E---------------------------------------------------------------
    
    Punteo octavado:
    
    E-12-12-12-12-13-12------12-12-12-12-12-13-12------12-
    B------------------13--13--------------------12--12---
    
  • Bueno aca dejo la partitura de Los Rodríguez – Sin documentos,
    califiquenla y dejen criticas. Buenas o malas, todas seran aceptadas.
    
    Gm
    D - D - D - D - D# - D - A# - G - A# - D
    D
    D - D - D - D - D# - D - A - F# - A - D
    D#
    D - D - F - D# - D - D# - D - C - D - C
    D
    A# - C - A# - A - D - D
    
    
    Gm
    D - D - D - D - D# - D - A# - G - A# - D
    D
    D - D - D - D - D# - D - A - F# - A - D
    D#
    D - D - F - D# - D - D# - D - C - D - C
    D
    A# - C - A# - A
    
    Gm                              D
    Déjame atravesar el viento sin documentos,
    D D D D D D D D D# D D# D D# D
    D#                              D
    que lo haré por el tiempo que tuvimos.
    A A# A# A# A# C A# C A A
    Gm                              D
    Porque no queda salida, porque pareces dormida,
    D D D D D D D D D# D D# D D# D
    D#                              D
    porque buscando tu sonrisa estaría toda mi vida.
    A# A# A# A# A# D# D C A# A C A A A A C A
    
    D#                              D
    Quiero ser el único que te muerda la boca,
    A# A# A# A# A# D# D C A# A C A# A 
  • +
    ¡Colabora con nosotros!
    Envíanos tu versión de esta canción
  • Tutorial
    como tocar sin documentos
    2:34
  • Tutorial
    Como tocar Sin Documentos - Solo - parte 2
    5:12

Letra de Sin Documentos
Dejame atravesar el viento sin documentos,
que lo hare por el tiempo que tuvimos.
porque no queda salida, porque pareces dormida,
porque buscando tu sonrisa estaría toda mi vida.
quiero ser el unico que te muerda la boca,
quiero saber que la vida contigo no va a terminar.
dejame que te cierre esta noche los ojos
y mañana vendre con un cigarro a la cama,
porque no tengo mas intenciones que seguir
bebiendo de esta copa que no está tan rota.
quiero ser el unico que te muerda la boca,
quiero saber que la vida contigo no va a terminar.
porque si, porque si, porque si,
porque en esta vida no quiero
pasar un dia entero sin ti.
porque si, porque si, porque si,
porque mientras espero por ti me muero
y no quiero seguir asi Huhuuu
Dejame atravesar el viento sin documentos,
que lo hare por el tiempo que tuvimos.
porque no queda salida, porque pareces dormida,
porque buscando tu sonrisa estaría toda mi vida.
quiero ser el unico que te muerda la boca,
quiero saber que la vida contigo no va a terminar.
porque si, porque si, porque si,
porque en esta vida no quiero
pasar un dia entero sin ti.
porque si, porque si, porque si,
porque mientras espero por ti me muero
y no quiero seguir asi Huhuuu
quiero ser el unico que te muerda la boca,
quiero saber que la vida contigo no va a terminar.
hay quiero ser el unico que te muerda la boca,
quiero saber que la vida contigo no va a terminar.
porque si, (porque si)
porque en esta vida no quiero
pasar más de un dia entero sin ti.
porque si, (porque si)
porque mientras espero por ti me muero
y no quiero seguir asi Haahoo




[Sin Documentos chords][Sin Documentos cifra]
© LaCuerda.net · aviso legal · privacidad · es · en · pt · contacto