Acordes de Guitarra » A »Andrés Calamaro » Malena (Tab)
  • Tablatura
    símbolos : 
    
    ^ = acento	6,8 = ligado entre el 6 y el 8	/ = slide ascendente	
    \ = slide descendente
    
    -----6--9--9--9--8---------------11--9--13---6,8,6----------------------
    --6-------------------7----7-----10-------------------6-----------------
    ---------------------------------11----------------------8-6-5-6--------
    -------------------------8----7-----------------------------------8-----
    --------------6---------------------------------------------------------
    ------------------------------------------------------------------------
    
    
    ----------------------------------------------------1--------
    ------------------------------------2--1---------------------
    --------------------------8--------------3---^-^-^-----------
    ---^---^---------------7-------1------------1,2,3------------
    ---8---6--^-^-^-^-6------------------------------------------
    ----------9-8-6-5-----------1--------------------------------
    
    
        Malena   canta el tango			      como ninguna 
    -----------
  • +
    ¡Colabora con nosotros!
    Envíanos tu versión de esta canción





© LaCuerda.net · aviso legal · privacidad · contacto
DINAMICO