Acordes de Guitarra » A »Andrés Calamaro » El salmón (Tab)

El salmón
Andrés Calamaro

Letras, Acordes y Tabs para Guitarra, Bajo y Ukulele

  • A - Asus4 (x3) 
    A - G
    
    C                                G
    Quiero arreglar todo lo que hice mal
           Am                                E
    todo lo que escondí hasta de mí,
    F                          G         
    debo contar lo que yo solo sé,
            C                             E
    tu perdón, Victor Sueiro también.
    
    Quiero arreglar todo lo que hice mal
    todo lo que escondí hasta de mí,
    debo contar lo que solo yo sé,
    tu perdón, Angel Cristo también.
    
          A                        D
    Se ve que para algo usé la cuchara,
                 A                                   D
    
  • C                        G
    Quiero arreglar todo lo que hice mal
         Am                      E
    todo lo que escondí hasta de mí,
    F                  G
    debo contar lo que yo solo sé,
           C                      E
    uh perdón, Victor Sueiro también.
    
    C                        G
    Quiero arreglar todo lo que hice mal
         Am                      E
    todo lo que escondí hasta de mí,
    F                   G
    debo contar lo que solo yo sé,
           C                     E
    uh perdón, Angel Cristo también.
    
       Am                 F
    Se ve que para algo usé la cuchara,
    
  • Intro
    |----------------|----------------|----------------|----------------|
    |----------------|----------------|----------------|----------------|
    |----------------|----------------|----------------|----------------|
    |5---5---3-4-5---|5-/-17------5---|5---5---5-------|--------3-4-5---|
    
    |----------------|----------------|----------------|----------------|
    |----------------|----------------|----------------|5---------------|
    |----------------|----------------|----------------|----------------|
    |5---5---3-4-5---|5-/-17------5---|5---5---3-4-5---|--3-3-3-3-3-3-3-|
    
    Quiero arreglar...
    |----------------|----------------|----------------|----------------|
    |----------------|----------------|----------------|----6---9---6---|
    |3-3-3-3-3-3-3-3-|----------------|----------------|7-7---7---7---7-|
    |----------------|3-3-3-3-3-3-0-3-|5-5-5-5-5-5-5-5-|----------------|
    
    |----------------|----------------|----------------|----------------|
    |----------------|----------------|---------
  • +
    ¡Colabora con nosotros!
    Envíanos tu versión de esta canción

Letra de El salmón
Quiero arreglar todo lo que hice mal
todo lo que escondí hasta de mí,
debo contar lo que yo solo sé,
uh perdón, Victor Sueiro también.
Quiero arreglar todo lo que hice mal
todo lo que escondí hasta de mí,
debo contar lo que solo yo sé,
uh perdón, Angel Cristo también.
Se ve que para algo usé la cuchara,
que no encuentro sopa, postre ni ensalada,
hay botellas vacías de marcas extrañas,
las debo haber tomado, que resaca.
No pienso estar Enero en Pinamar
no me excita cagar en el mar
que tentación yo me voy al bolsón
reservé por ahí una gran suite.
No pienso estar Enero en Pinamar
no me excita cagar en el mar
que tentación yo me voy al bolsón
reservé por ahí una gran suite.
Me dicen
te dicen ve a mil el coche no tiene nada
en esta ocasión voy a pedirles perdón
si es rápido y es gratis...Why not?
Siempre seguí la misma dirección
la difícil la que usa el salmón
siento llegar al vacío total
de tu mano me voy a soltar.
Siempre seguí la misma dirección
la difícil la que usa el salmón
siento llegar al vacío total
de tu mano me voy a soltar.
Dame, dame, dame un poco de tu amor
yo a cambio te ofrezco
una montaña de horror.
Dame,dame, dame un poco de tu amor.
Me llegó una carta
que me dice The End,
no tiene remitente
déjame de joder.




[El salmón chords][El salmón cifra]
© LaCuerda.net · aviso legal · privacidad · es · en · pt · contacto