Acordes de Guitarra » A »Amen » Fín del tiempo (Tab)

Fín del tiempo
Amen

Letras, Acordes y Tabs para Guitarra, Bajo y Ukulele

  • LA               MI            FA#m
    
    para el que duda y miente
                 RE       LA     
    
    y creee que se salvara.......
        MI             FA#m    RE
    
    Fe no se encuentra en lo material
    LA             MI              FA#m
    
    es una escala espiritual
            RE         LA
    
    que aun nos falta conocer.........
        MI            FA#m    RE
    
    mmm libre cielo .........( no escuho bien la letra)
    LA    MI    FA#m    RE 
    
    
  •    LA               MI
    e----------0---------------0---------
    B------2-----2---------0-----0-------
    G----2---2-----2-----1---1-----1-----
    D------------------------------------
    A--0---------------2-----------------
    E------------------------------------
    
       FA#m             RE
    e----------2---------------2---------
    B------2-----2---------3-----3-------
    G----2---2-----2-----2---2-----2-----
    D------------------------------------
    A--4---------------0-----------------
    E------------------------------------
    
    (Los acordes son los mismos durante toda la canción)
    
    Fin del tiempo para que el no ve
    A              E              F#m
    
  •              A          E           F#m        D
              \x=====/   \======/    \======/   \======/
               ||||||     |||o||      ||||||     ||||||
               ||ooo|     |oo|||      oooooo     |||o|o
               ||||||     ||||||      ||||||     ||||o|
               ||||||     ||||||      |oo|||     ||||||
    
                 A          E          F#m          D
              e|-0--     e|-0--      e|-2--      e|-2--
              b|-2--     b|-0--      b|-2--      b|-3--
              g|-2--     g|-1--      g|-2--      g|-2--
              D|-2--     D|-2--      D|-4--      D|-0--
              A|-0--     A|-2--      A|-4--      A|----
              E|----     E|-0--      E|-2--      E|----
    
    
                                 Explicacion de la TABLATURA
                                =============================
    
         h=  hammer on          p=   pull-off
    
  •      A
    e||-------5--------------|
    B||--5-------7-5------5--|
    G||--6---6-6-----6--6--6-|  x3
    D||--7-------------------|
    A||--7-------------------|
    E||----------------------|
    
    E    F#m   A  E
    e||---0----2-----5--4----|
    B||----0----2------------|
    G||-----1----2-----------|
    D||---2----4-----7--6----|
    A||----------------------|
    E||----------------------|
    
    El arpegio de la canción :
    
    LA               MI
    e----------0!---------------0!-------    los k llevan este símbolo (!)
    
  • +
    ¡Colabora con nosotros!
    Envíanos tu versión de esta canción

Letra de Fín del tiempo
para el que duda y miente
y creee que se salvara.......
Fe no se encuentra en lo material
es una escala espiritual
que aun nos falta conocer.........
mmm libre cielo .........( no escuho bien la letra)
perdona y aprende a pedir perdon
eso es libertad
no mires mas , de lo que te daña

porque no es una aventura es tu vida real
Cambiemos el mundo con la union
cambiemos con el corazon
la mejor forma de pensar....

y pon en uso tus sentimientos
teniendo en cuenta que el amor
siempre te orientarA.....
Tranquilidad en el alma, busca lo real
lo real es eterno y siempre
en ti no pienses mal
talvez me escuches o tal vez te iras
Hay mucho que piensan con los pies
por eso el mundo esta al reves
o es que acaso no lo ven
y no es necesario ser sabio
ser sacertote o profesor para entender que es al amor
N habra fronteras si no
si no hay egoismo
no habran rekigiones que entienden
que dios es el mismo
no habria violencia si existiera paciencia
habria amor si entiendes que el amor es una ciencia
FIN DEL TIEMPO PARA EL QUE NO VE....




[Fín del tiempo chords][Fín del tiempo cifra]
© LaCuerda.net · aviso legal · privacidad · es · en · pt · contacto