Acordes de Guitarra » A »los Amantes de Lola » Beber De Tu Sangre (Tab)

Beber De Tu Sangre
los Amantes de Lola

Letras, Acordes y Tabs para Guitarra, Bajo y Ukulele

  • Dm       A#         F            C
    Tantas cosas en la mente me aterran
    Dm       A#        F             C
    El pensar en todo y nada de una ves
    Dm         A#         F          C
    El estar dormido, el soñar con frio
    Dm       A#         F          C
    En verdad es el perdido buscandote
    
    
    Dm           A#      F         C
    Ver los muros de mi casa tan fria
    Dm         A#         F            C
    Puedo pensar en algo para hacer calor
     Dm       A#          F          C
    El moverme me hace tituvear y dudar
    Dm          A#      F        C
    Pero esa imagen no se ira jamas
    
    
    
  •    intro (Dm-A#-F-C)
    
    Dm             A#          F         C      Dm
            Tantas cosas en la mente me aterran
          A#            F            C         Dm
    el pensar en todo y nada de una vez
          A#            F
    el estar dormido
          C            Dm
    el soñar contigo
          A#         F        C
    el permanecer perdido buscandote
       Dm-A#-F-C
    Dm             A#          F         C        Dm
          Tras los muros de mi casa tan fria
             A#           F            C        Dm
    puedo pensar en algo para hacer calor
         A#            F        C         Dm
    el moverme me hace titubear y dudar
         A#         F            C        A#
    
  • B*-----6------------------------------------------------------------------
    G*-----------6/7--10-------12--10-----------------10--10------------------
    D*---------------------------------12--10--12-------------10------6/7--10-
    A*------------------------------------------------------------------------
    E*------------------------------------------------------------------------
    
    Tantas cosas en la mente me aterran
    El Pensar en todo y nada de una vez  (riff 1)
    El estar dormido, el soñar con frío  (riff 1)
    El Permanecer perdido, buscandote
    (x2)
    e*------------------------------------------------------------------------
    B*------------------------------------------------------------------------
    G*------------------------------------------------------------------------
    D*------------------------------------------------------------------------
    A*--8-7-8-5----8-7-8------8-7-8------8-7-8-10~~--------------------------
    E*-------------------6----------5-----------------------------------------
    
    En los muros de mi casa, tan fría
    Puedo pensar en algo para hacer calor   (riff 2)
    
  •    Dm      A#      F      C            Dm  A#       F   C 
     E-1*3--1-------1---------1*3--1-------------1--1-------------|
     B---------1*3-------------------3--1--3------------1------1--|
     G------------------------------------------------------2-----|
     D------------------------------------------------------------|
     A------------------------------------------------------------|
     E------------------------------------------------------------|
    
      Dm     A#          F           C         
      Tantas cosas en la mente, me aterran
      Dm     A#           F           C               
      El pensar en todo y nada de una vez
      Dm       A#      F             C             
      El estar dormido, el soñar contigo,
      Dm      A#         F   C                    
      el permanecer perdido, buscandote.  
      
     
       'aqui ya saben, g1 y g2'
    
    
  • E---------------|----------|--------------------|------------|--------|
    B----12/13------|----------|--------------------|------------|--------|
    G-----------10--|-------10-|-12--10-------------|-10--10-----|--------|
    D---------------|10/12-----|---------12--10--12-|---------10-|----10--|
    A---------------|----------|--------------------|------------|/12-----|
    E---------------|----------|--------------------|------------|--------|
    
    Dm     A#          F          C
    Tantas cosas en mi mente me aterran
    E--1--|
    B--3--|
    G--2--|
    D--0--|
    A--0--|
    E--0--|
    
      Dm     A#          F          C
     El pensar en todo y nada de una vez                                                          
    E--------------------------|
    B--------------------------|
    
  • q hay banda haora les traigo
    esta tab de los amantes de lola
    ami pareser suena bn y esta muy
    facil..spero y les guzte..
    disfrutenla <------...°°!!
    
    intro:
    
    G|---------------------------------
    D|---------------------------------
    A|-5-55--1-11-----3-33-3-5-55-1-11-
    E|------------1-11---------------x2
    
    
    tantas cosas en la....
    
    asi seva toda la rola casi nomas lleva unos detallitos
    mas adelante..
    G|---------------------------------------------------
    D|---------------------------------------------------
    A|-5-55--1-11-----3-33-----5-55-1-11-----3-33-3-5-55-
    E|------------1-11-----4-6-----------1-11------------
    
    y el penzar en ti...
    
    esto se hace con glisados...                         delatar...
    
    G|-------------------------------|                  G|------------|
    D|-------------------------------|y para terminar   D|------------|
    A|-1-11-1/5-55-5/3-33-3/5-55-5---|esa pieza es esto A|-3333333333-|
    E|-----------------------------X3|------------>     E|------------|
    
    podria gritar que m
  • Los Amantes de Lola-Beber de tu Sangre
    KEY: HH-Hihats CC-Crash RC-Ride SD-Snare BD-Bass drum 1,2,3-Tom1,2,3
    
    Intro
    HH | (X)x-x-x-x-x-x-x-|
    SD |F|----o-------o---|x8
    BD | |o-----o-o-------|
    Verso
    HH (X)x-x-x-x-x-x-x-|     |x-x-x-x-x-x-x-o-|
    SD |----o-------o---|x15->|----o-------o---|
    BD |o-----o-o-------|     |o-----o-o-------|
    Puente
    HH |x-x-x-x-x-x-x-x-|     |x-x-x-x-x-x-o---|
    SD |----o-------o---|x7->|----o-------o---|
    BD |o-----o-o-------|     |o-----o-o-------|
    Verso
    HH (X)x-x-x-x-x-x-x-|     |x-x-x-x-x-x-----|
    SD |----o-------o---|x15->|----o-------F---|
    BD |o-----o-o-------|     |o-----o-o-------|
    Pre-Coro
    HH |x-x-X-----------|     |x-x-x-x-x-x-x-x-|  |x-x-x-x-x-------|
    SD |------------F---|x14->|----o-------o---|->|----o-----F-ooo-|
    BD |o-----o-o-------|     |o-----o-o-------|  |o-----o-o-------|
    Coro
    HH | (X)x-x-x-x-x-x-x-|     |x-x-x-x-x-x-x-o-||
    SD |:|----o-------o---|x7-->|----o-------o---|:|x2
    BD | |o-----o-o-------|     |o-----o-o-------| |
    Puente
    HH (X)
  • +
    ¡Colabora con nosotros!
    Envíanos tu versión de esta canción
  • Tutorial
    HD
    Como tocar BEBER DE TU SANGRE en guitarra - Los Amantes De Lola [Tutorial Somos Posers]
    7:20
  • Tutorial
    HD
    Beber De Tu Sangre Cómo Tocar En Guitarra
    7:32
  • Tutorial
    HD
    Beber de tu sangre - Amantes de Lola
    Cómo tocar... #14
    3:44

Letra de Beber De Tu Sangre
Tantas cosas en la mente me aterran
El pensar en todo y nada de una ves
El estar dormido, el soñar con frio
En verdad es el perdido buscandote
Ver los muros de mi casa tan fria
Puedo pensar en algo para hacer calor
El moverme me hace tituvear y dudar
Pero esa imagen no se ira jamas
El pensar en ti me hace recordar
El encanto que provoca tu fragilidad
Quedarme sentado aquí me puede congelar
El hablar de ti me puede delatar
Podria gritar que me dejes beber de tu sangre
Podria gritar que me dejes beber de tu sangre
Podria gritar que me dejes beber de tu sangre
Podria gritar que me dejes beber de tu sangre
ESTA ES UNA ROLA DE LOS AMANTES DE LOLA.
ESPERO LES GUSTE PUES ES MI PRIMERA COLABORACION SI TIENEN ALGUNA DUDA PREGUNTA EN c_gvv@yahoo.com.mx




[Beber De Tu Sangre chords][Beber De Tu Sangre cifra]
© LaCuerda.net · aviso legal · privacidad · es · en · pt · contacto