Acordes de Guitarra » A »Alvaro Carrillo » El Andariego (Tab)

El Andariego
Alvaro Carrillo

Letras, Acordes y Tabs para Guitarra, Bajo y Ukulele

  • LAm             LA7         REm
    Yo que fui del amor, ave de paso
    SOL7                      DO 
    Yo que fui mariposa de mil flores
    FA                             MI 
    Hoy siento la nostalgia de tus brazos
                     FA                      MI 
    De aquellos tus ojazos, de aquellos tus amores
    
    
    LAm           LA7           REm
    Ni cadenas ni lágrimas me ataron
    SOL7                            DO 
    Más hoy siento la calma y el sosiego
    FA                         MI 
    Perdona mi tardanza te lo ruego
                    FA               MI            LAm
    Perdona al andariego que hoy te ofrece el corazón
    
    
    
  • MIm            MI7         LAm
    Yo que fui del amor, ave de paso
    RE7                      SOL
    Yo que fui mariposa de mil flores
    DO                            SI7
    Hoy siento la nostalgia de tus brazos
                       DO  SI7                MIm
    De aquellos tus ojazos,   de aquellos tus amores
    
    
    MIm            MI7           LAm
    Ni cadenas ni lágrimas me ataron
    RE7                            SOL
    Más hoy siento la calma y el sosiego
    DO                        SI7
    Perdona mi tardanza te lo ruego
                    DO                SI7        MIm
    Perdona al andariego que hoy te ofrece el corazón
    
    
    
  •        E7// /// A-// D7// G// B7// E-// ///
    
    A1:
    Em             Bdim        Am
    Yo que fui del amor ave de paso
    D7                     G     G7
    Yo que fui mariposa de mil flores
    C                              B7
    Hoy siento la nostalgia de tus brazos
                C          F#7
    De aquellos tus ojazos
                     B7
    De aquellos tus amores
    
    A2:
    Em            Bdim         Am
    Ni cadenas ni lágrimas me ataron
    D7                           G      G7
    Más hoy quiero la calma y el sosiego
    C                         B7
    
  • Esta parte se repite dos veces
    e---------------------------------------
    B-----------5-8-7-8-7-8-7-8-8-10-10-8-6-
    G---------6---9-8-9-8-9-8-9-9--9—-9-9-7-
    D---7-6-7-------------------------------
    A---------------------------------------
    E---------------------------------------
    
    
    e-----------5—9—-8--9—-8—-9—-9—-11-11-9—-7-
    B---------6---11-10-11-10-11-11-11-11-11-9-
    G---7-6-7----------------------------------
    D------------------------------------------
    A------------------------------------------
    E------------------------------------------
    
    
    Esta parte es la mas difícil y va rapído     esta parte va mas rapido         
    e-------5-6-5-------5----------------------- -------5-10-
    B---8-8-----8-6-6-8---6-8-5-5-6-8-5-6-5----- -----6---10-
    G---------------------------------------6-7- -6-7-----10-
    D------------------------------------------- ---------10-
    A------------------------------------------- ------------
    E------------------------------------------- --------
  • Esta parte se repite dos veces
    e------------------------------------------
    B-----------5-8-7-8-7-8-7-8-8-10-10-8-6----
    G---------6---9-8-9-8-9-8-9-9-11—11-9-7----
    D---7-6-7----------------------------------
    A------------------------------------------
    E------------------------------------------
    
    
    e-----------5—8—-7--8—-7—-8—11—11-10-8-—---
    B---------6---10-8-10--8-10-10-10-8--6-----
    G---7-6-7----------------------------------
    D------------------------------------------
    A------------------------------------------
    E------------------------------------------
    
    
    Esta parte es la mas difícil y va rapído     esta parte va mas rapido
    e----5-6-5---5----5------------------------5--10--
    B--8-------8---6-8--8-6-8-5--6-8-6-5-----6----10--
    G--------------------------------------7------10--
    D---------------------------------------------10--
    A-------------------------------------------------
    E-------------------------------------------------
    
    
    Esta parte intentala hacer lo mas rapido que pued
  •               A7                  Dm         (x2)
    e|------------------------------------------|
    B|----------5-8-8-7-8-8-7-8-8-8-8-10-10-8-6-|
    G|--------6---9-9-8-9-9-8-9-9-9-9-10-10-9-7-|
    D|--7-6-7-----------------------------------|
    A|------------------------------------------|
    E|------------------------------------------|
    
                  D7                         Gm
    e|----------5-8--8--7-8--8--7--8--8--8---10-10-8--6-|
    B|--------6---10-10-9-10-10-9--10--10-10-11-11-10-8-|
    G|--7-6-7-------------------------------------------|
    D|--------------------------------------------------|
    A|--------------------------------------------------|
    E|--------------------------------------------------|
                Dm          A7                    Dm
    e|---5-6-5-----5---------------------------5--10--|
    B|-8-------8-6--6-8-5---8-6-5-6--8-6-5-6--6---10--|
    G|---------------------------------------7----10--|
    D|------------------------------------------------|
    
  • +
    ¡Colabora con nosotros!
    Envíanos tu versión de esta canción

Letra de El Andariego
Yo que fui del amor, ave de paso
Yo que fui mariposa de mil flores
Hoy siento la nostalgia de tus brazos
De aquellos tus ojazos, de aquellos tus amores
Ni cadenas ni lágrimas me ataron
Más hoy siento la calma y el sosiego
Perdona mi tardanza te lo ruego
Perdona al andariego que hoy te ofrece el corazón
Hay ausencias que triunfan y la nuestra triunfo
Amémonos ahora con la paz que en otros tiempos nos falto
Y cuando yo me muera ni luz ni llanto, ni luto nada más
Ahí junto a mi cruz, tan solo quiero paz
Una lagrima llevame, por última vez
Y en silencio dirás una plegaria
Y por dios, olvídame después
Mi+, Lam, Mi+, Lam, La7, Rem, Lam, Mi+, Lam
Este es el acompañamiento de la segunda parte del requinto
Mi+, Lam, Sol7, Do+, La7m, Rem, Lam, Mi+, Lam
Hay ausencias que triunfan y la nuestra triunfo
Amémonos ahora con la paz que en otros tiempos nos falto
Y cuando yo me muera ni luz ni llanto, ni luto nada más
Ahí junto a mi cruz, tan solo quiero paz
Una lagrima llevame, por última vez
Y en silencio dirás una plegaria
Y por dios, olvídame después
Y por dios, olvídame después
**Are Te Amo**




[El Andariego chords][El Andariego cifra]
© LaCuerda.net · aviso legal · privacidad · es · en · pt · contacto