Acordes de Guitarra » A »Alex Campos » Me Dijo (Tab)

Me Dijo
Alex Campos

Letras, Acordes y Tabs para Guitarra, Bajo y Ukulele

  • E|-5555-------5-------5--2222-------2-------2-|
    A|------4-7-4---4-7-4---------0-4-0---0-4-0---|
    D|--------------------------------------------|
    
    E|--------------------------------------------|
    A|-5555-------5-------5--7777-------7--7--7---|
    D|------4-7-4---4-7-4---------6-9-6-----------|
    
    2da Parte
    
    // A - F#m - D - E //
    
    
    Estrofa 1:
    
    A
    Quiero decirlo cantando
                  E               E-D#
    Lo que aquel día allí me paso
      D
    
  • e|----------------------/---------------------
    B|----------------------/---------------------
    G|----------------------/---------------------
    D|----------------------/---------------------
    A|----------------------/---------------------
    E|--5-5-5-5-9-5--5-9-5--/--s2-2-2-2-5-2--2-5-2
    
    
    
    
    e|-------------------/-----------------------
    B|-------------------/-----------------------
    G|-------------------/-----------------------
    D|-------------------/-----------------------
    A|-5-5-5-5-9-5--5-9-5/s7-7-7-7-11-7---7-11-7-
    E|-------------------/-----------------------
    
    
    
    
    
  • A:-----5-8-5---5-8-5--------2-5-2--2-5~-2---3x4------3------3-
    E:-6x4-------6-------6--3x4------3--------3-------------------
    
    ----7-10-7------|
    -8x4------8-8-8-|
    ----------------|
    
    Junto con las trompetas:
    E:--6-6-6-6---3-3-3-3---3-3-3-3---1-1-1-1-|
    B:--6-6-6-6---3-3-3-3---4-4-4-4---1-1-1-1-|
    G:--7-7-7-7---3-3-3-3---5-5-5-5---2-2-2-2-|
    D:--8-8-8-8---5-5-5-5---5-5-5-5---3-3-3-3-|
    A:--8-8-8-8---5-5-5-5---3-3-3-3---3-3-3-3-|
    E:--6-6-6-6---3-3-3-3---3-3-3-3---1-1-1-1-|x2
    
    A#
    Quiero decirlo cantando
                  Gm          G/A-C/D
    Lo que aquel día allí me paso
      Cm
    
  • Hola les dejo el bajo de esta cancion
    es mas de la version te puedo sentir por los arreglos y eso
    
    
    Bajo Solo.
    
    G---------------------------------------------------
    D---------------------------------------------------
    A---------4-7-4---4-7-4------------0-4-0-----0-2-4--
    E--5(x4)--------5--------5s-2(x4)---------2---------
    
    G-------------------------------------------------
    D--------4-7-4---4-7-4----------6-9-6-------------
    A--5(x4)-------5-------5s-7(4x)-------7v-/12-----
    E-------------------------------------------------
    
    
    Junto Con Trompetas.
    
    
    G-----------------------------------------------------
    D-----------------------------------------------------
    A------4---2h4-4-2--------0----0s4--2-4-2-------0-----
    E--5-5---5---------4-2--2---2-------------4-2-2---2---
    
    G----------------------------------------
    D--5s9-9-9-5-5h7h5v----------------------
    A--------------------5s7-7s5-5s77777-/--
    E----------------------------------------
    
    
    
    
    G------------------------------------------------------
  • Intro:
    D:----------------------------------------------4-7-4—-4-7-4--
    A:-----4-7-4---4-7-4--------0-4-0—-0-4-0---5x4-------5------5-
    E:-5x4-------5-------5—-2x4------2--------2-------------------
    
    ----6-9-6---6-9-6---|
    -7x4------7-------7-|(el ultimo 6, 9, 6, 7 es solo un arreglo
    --------------------|
    
    Aquí entran las trompetas:
    se repite lo mismo de arriba  despues ya empieza ...
    
    Estrofa I: (Solo sigue las notas)
    // A – F#m – D – E //
    
    
    Estrofa 1:
    
    A
    Quiero decirlo cantando
                  E               E-D#
    Lo que aquel día allí me paso
      D
    Estaba solito y muy triste
                 A               E
    Cuando de repente el apareció
    
    A
    Hola como estas me miro
                   E                E-D#
    Y acercándose no lo podía creer
      D
    Era el creador de los cielos
                    A                E
    El fuerte el eterno el Gran Yo Soy
    
    
    Pre-Chorus: A – F#m – D - E
    
    Chorus:
    
        A
    Me dijo sonriendo
    Tú eres mi deseo
       F#m
    Tú eres lo que yo más quiero
    Sin ti yo me desespero
    
         
  • G|--------------------------------------------------------------
    D|------------------------------------------------------4-7-4---
    A|--------4-7-4----4-7-4-------------4------0-2-4-5(x4)---------
    E|--5(x4)-------5--------5s-2(x4)-5---5-2-----------------------
    
    G----------------------------------------------------------|
    D-----4-7-4----------6-9-6--------------------------19s/---|  Bass
    A--5--------5s-7(4x)-------7s—-19s17s19s17s19s17s19--------|  Solo
    E----------------------------------------------------------|
    
    
    Introd.
        A                 F#m                D
    G|-----------------------------------------------------------
    D|---------------------------------------------4----7s9-9-7--
    A|------4------4----------0---4v----0---44-5-5---5-----------
    E|--5-5---5--5---5-5s-2-2---2-----2---2----------------------
                    E
    G------------------------------------|
    D------------------------------------|    X2
    A—-9s10v-10s9v--7-7s5--7-7777s/------|
    E------------------------------------|
    
  • +
    ¡Colabora con nosotros!
    Envíanos tu versión de esta canción

Letra de Me Dijo
2da Parte
Estrofa 1:
Quiero decirlo cantando
Lo que aquel día allí me paso
Estaba solito y muy triste
Cuando de repente el apareció
Hola como estas me miro
Y acercándose no lo podía creer
Era el creador de los cielos
El fuerte el eterno el Gran Yo Soy
Pre-Coro: A - F#m - D - E
Me dijo sonriendo
Tú eres mi deseo
Tú eres lo que yo más quiero
Sin ti yo me desespero
Me dijo eres mi luna
Eres mi cielo
Eres poesía
Eres todos mis sueños
Tu mi reflejo tu mi anhelo
Eres todo lo que quiero yo por ti muero
Nada es completo si no te tengo
Di por ti la vida para que hoy seas eterno
Post-Coro: A - F#m - D - E
Estrofa 2:
Quiero decirlo cantando
Lo que aquel día allí me paso
Conocí a mi Cristo mi amigo
Mi papi al todopoderoso
Seguiré cantando y gritando
Que el mundo me diga que loco estoy
Loco por amor el amor que el me dio
Y que traigo en esta canción
Pre-Coro: A - F#m - D - E
Me dijo sonriendo
Tú eres mi deseo
Tú eres lo que yo más quiero
Sin ti yo me desespero
Me dijo eres mi luna
Eres mi cielo
Eres poesía
Eres todos mis sueños
Tu mi reflejo tu mi anhelo
Eres todo lo que quiero yo por ti muero
Nada es completo si no te tengo
Di por ti la vida para que hoy seas eterno
Estrofa 2:
Quiero decirlo cantando
Lo que aquel día allí me paso
Conocí a mi Cristo mi amigo
Mi papi al todopoderoso
Seguiré cantando y gritando
Que el mundo me diga que loco estoy
Loco por amor el amor que el me dio
Y que traigo en esta canción.
Outro: A - F#m - D - E
**************************************************************
Cualquier duda o comentario enviarme un correo electrónico a
rafael.agostini@yahoo.es
**************************************************************




[Me Dijo chords][Me Dijo cifra]
© LaCuerda.net · aviso legal · privacidad · es · en · pt · contacto