Acordes de Guitarra » A »Alex Campos » Lenguaje de amor (Tab)

Lenguaje de amor
Alex Campos

Letras, Acordes y Tabs para Guitarra, Bajo y Ukulele

  • Intro      //// Dm7   C    G ////
    
    Dm7 C        G                              Dm7  C      G
     DEJA QUE TE EXPLIQUE LO QUE ESTOY VIVIENDO,  ES LA REALIDAD,
    Dm7 C        G                          Dm7  C           G
     DEJA QUE LA LUZ SE MEZCLE CON EL VIENTO, NO TE ARREPENTIRÁS,
            F                     G#       G
    ES TAN SIMPLE Y REAL,  TÚ MI AMOR LO VERÁS
    
    CORO:
        C        F                 Dm    G                C
    SU AMOR, EL TIBIO AMANECER DEL SOL, POEMA QUE ME ENAMORO,
        Em                Dm       G                    C
    EL PÉTALO DE AQUELLA FLOR, LA LETRA DE ESTA MI CANCIÓN;
        Am           F     G                   Dm7
    SU AMOR, ME ENCONTRÓ, VEO QUE SE TRATA DE DIOS.
    
    INTRO DOS VECES
    
    Dm7 C        G                     Dm7   C      G
    
  • Intro: //F - G//
    
    Punteo:
    
    e)|-13-13-13-12--------------------------------------|
    B)|------------15-13-12-12-11------------------13-12-|
    G)|--------------------------13-11-10-10-10-9-7------|
    D)|--------------------------------------------------|
    A)|--------------------------------------------------|
    E)|--------------------------------------------------|
    
    1er Verso:
    F   C         G                            F    C        G
     Deja que te explique lo que estoy viviendo, es la realidad,
    F   C        G                           F    C         G
     Deja que la luz se mezcle con el viento, no te arrepentirás,
             F                   G
    Es tan simple y real,  tu mi amor lo veras…
    
    CORO:
    
  •  B--------------15-13-12-12-12h13p12--------------------8s10-8v--|
     G-----------------------------------14-12-10-10-10-9-7----------|
     D---------------------------------------------------------------|
     A---------------------------------------------------------------|
     E---------------------------------------------------------------|
    
     Verso.
    
      00:40
     E------------------------------------|
     B------------------------------------|
     G-x-2-x-2-x-2-x-2-x-5-x-5-x-4-x-4-x--|
    
     Coro.(Cuando pasen la segunda vez al coro hay escuchan bien
     porque cambia el orden un poco)
    
     E---8------8------8------8----------------------7------7----|
     B-8---8--8---8--8---8--8---8--8-10-8--8-10-8--8---8--8---8--|
     G-----------------------------------------------------------|
    
    
  • +
    ¡Colabora con nosotros!
    Envíanos tu versión de esta canción

Letra de Lenguaje de amor
DEJA QUE TE EXPLIQUE LO QUE ESTOY VIVIENDO, ES LA REALIDAD,
DEJA QUE LA LUZ SE MEZCLE CON EL VIENTO, NO TE ARREPENTIRÁS,
ES TAN SIMPLE Y REAL, TÚ MI AMOR LO VERÁS
SU AMOR, EL TIBIO AMANECER DEL SOL, POEMA QUE ME ENAMORO,
EL PÉTALO DE AQUELLA FLOR, LA LETRA DE ESTA MI CANCIÓN;
SU AMOR, ME ENCONTRÓ, VEO QUE SE TRATA DE DIOS.
DEJA QUE LA RISA DEBILITE EL MIEDO, VUELVE A CANTAR,
DESNUDA EL ALMA, NO TE ESTÉS MINTIENDO, SE TÚ LA VERDAD,
ES TAN SIMPLE Y REAL, TÚ MI AMOR LO VERAS,
GRANDE ES COMO EL MAR, TÚ LO VAS A NOTAR
SU AMOR, EL TIBIO AMANECER DEL SOL, POEMA QUE ME ENAMORO,
EL PÉTALO DE AQUELLA FLOR, LA LETRA DE ESTA MI CANCIÓN;
SU AMOR, ME ENCONTRÓ, SIENTO SU LENGUAJE DE AMOR,
LA PASIÓN, EL PERDÓN, ENCUENTRO QUE SE TRATA DE DIOS.
OH SI MAÑANA NO SALIERA EL SOL, NO IMPORTA SU AMOR ME ABRIGO,
SI EL CIELO PIERDE SU ESPLEN..DOR, TÚ SIGUES SIENDO
EL BRILLO DE AMOR,
SU AMOR, ME ENCONTRÓ, SIENTO SU LENGUAJE DE AMOR,
LA PASIÓN, EL PERDÓN, ENCUENTRO QUE SE TRATA DE DIOS,
.........VEO QUE SE TRATA DE DIOS,
.........SIENTO SU LENGUAJE DE AMOR.
Saludos a IGC de El Salvador




[Lenguaje de amor chords][Lenguaje de amor cifra]
© LaCuerda.net · aviso legal · privacidad · es · en · pt · contacto