Acordes de Guitarra » A »Alejandro Silva » Neopangea (Tab)

Neopangea
Alejandro Silva

Letras, Acordes y Tabs para Guitarra, Bajo y Ukulele

  • |-----12-13-17-13-12---------------------|----17-18-22-18-17--------------------|
    |---15--------------15-------------------|--18--------------18----------------15|
    |-14------------------14-12------------14|19------------------19-15---------15--|
    |--------------------------15--------15--|-------------------------15-----15----|
    |----------------------------17-12-17----|---------------------------17-13------|
    |----------------------------------------|--------------------------------------|
    ||= = =  =||=  =  = =||= = =  =||= = = =||= = =  =||=  = = =||=  = = =||= = = =|
    
                                                         5           3       3
                                                   |------------| |-----||-------|
    |-13-18-17-13-15-12------------------18-15----|--------------------------------|
    |------------------13---------------------17--|--------------------------------|
    |---------------------12--------------------15|12-15-12------------------------|
    |------------------------14-------------------|---------14---------10-15-10----|
    |---------------------------15-10-------------|------------15----12---------12-|
    |---------------------------------12----------|----------------13--------------|
    ||=  =  =  =||=  = =  =||=   =  = =||=  = = =||=  =  =  =   =||= = =  =  =  =| |
    |                                                                              |
    |    3        3        3       3       3     3                                 |
    | |------||-------||-------||------|  |--||----|                               |
    
  • +
    ¡Colabora con nosotros!
    Envíanos tu versión de esta canción

Letra de Neopangea
||= = = =||= = = =||= = = =||= = = =||= = = =||= = = =||= = = =||= = = =|
5 3 3
||= = = =||= = = =||= = = =||= = = =||= = = = =||= = = = = =| |
| |
| 3 3 3 3 3 3 |
||= = = = = =||= = = = = =| |==== = =||= = = =||= = = =||= = = = |
|
|
||= = = =||= = = =||== = = ||= = = =||= = = =||= = = =||= = = =||= = = =|
|
|
|
| hasta este punto las dos guitarras tocan al mismo tiempo, y hay un tercera
| guitarra que toca los riffs, que ya voy a detallar al final de la tab de los
| Arpegios.
|
| Alejandro Silva
|= = = =|||= = = =||= = = =||= = = =| ||== = =| I ||
| | ||
|Cristóbal Arriagada | ||
|= = = =||= = = =||= = = =| |== = =| I
ahora vienen los riffs de fondo, para acompañar a este arpegio
| |
| |
así termina la tab de hoy, me despido, les recomiendo que la escriban el algún guitar pro
O programa similar que tenga midi, para que así puedan ejercitar bien. háganlo lento, para
Que se les grave de manera correcta en su cerebro esta tab de un gran músico.
en memoria de Alejandro silva un clásico del DIOS EOL su 'NEOPANGEA'.
tratare de sacar nuevas tabs, si hay algun error me corrigen mi E-mail es:
anthares_lyrics@hotmail.com, chao metaleros

Video de Neopangea
[]




[Neopangea chords][Neopangea cifra]
© LaCuerda.net · aviso legal · privacidad · es · en · pt · contacto