Acordes de Guitarra » A »Alejandro Silva » Metal Himno (Tab)

Metal Himno
Alejandro Silva

Letras, Acordes y Tabs para Guitarra, Bajo y Ukulele

  • Bueno ak va el metal himno por el maestro... el unico Alejandro Silva
    Pura Calidad Chilena!!!!!!!
    ¿Pq? uno comete tantos errores que lo bajan a lo más profundo... solo
    quiero esta cerca de alguien que esta lejos en el mismo lugar!!!
    
    Intro Bateria 00:25
    
    0:27 Entrada de Silva
    E|---8-8-7-5-5----------------5--------------------------------------------|
    B|-/8---------8-6-8-6-5--5-6-8-6-5-6-8-5-----------------------------------|
    G|----------------------7---------------7----------------------------------|
    D|---------------------------------------5-5~~-----------------------------|
    A|-------------------------------------------------------------------------|
    E|-------------------------------------------------------------------------|
    
    E|---8-8-7-5-5---------8-8-7-5-7-8-5---------------------------------------|
    B|--8---------8-6-8-6-5--------------8-8~~---------------------------------|
    G|-------------------------------------------------------------------------|
    D|-------
  • +
    ¡Colabora con nosotros!
    Envíanos tu versión de esta canción



Video de Metal Himno
[]




[Metal Himno chords][Metal Himno cifra]
© LaCuerda.net · aviso legal · privacidad · es · en · pt · contacto