Acordes de Guitarra » A »Alejandro Silva » Lagarto (Tab)

Lagarto
Alejandro Silva

Letras, Acordes y Tabs para Guitarra, Bajo y Ukulele

  • E||------------------9-------------------------------|
    B||----------------9---9----------------------9----9-|
    G||-------------10-------10----------------10---10---|
    D||----------11-------------11----------11-----------|
    A||-------11-------------------11----11--------------|
    E||--9-13-------------------------13-----------------|
    
    
    
    --------------------------------------12----------------------------12----|
    --12----------------------------12-------12----------------------12----12-|
    -----13----------------------13----13-------13----------------13----------|
    --------14----------------14-------------------14----------14-------------|
    -----------14----------14-------------------------14----14----------------|
    --------------16-12-16-------------------------------16-------------------|
    
    
    
    --14-11----------------------------11-14-11----16-11----14-11----12-11----|
    --------12----------------------12----------12-------12-------12-------12-|
    -----------11----------------11-------------------------
  • Bueno, no me ando con chivas: este tema yo lo he sacado en bajo,
    pero esta tablatura de guitarra la sacó un amigo y me dijo que la
    subiera.
    Este es un temazo, pero aquí solo estan la primera y última parte,
    la de enmedio todavía no la escribo.
    Ah!... em, me la pitié con el nombre del tema, se llama El Lagarto,
    aunque da casi lo mismo.
    Suerte a todos los guitarristas que tienen dedos para tocar esto.
    
    
    E||---------4----4-------|------------------|
    B||-----------------2----|------------------|
    G||----------------------|------------------|
    D||--6-------------------|------------------|
    A||----------------------|------------------|
    E||----------------------|------------------|
    
    
    
    ----------1-4-9--------------------4---4-7-4-0-------|
    --------2-------9----------------6---6---------0-----|
    ------1-----------10-----------6-----------------1---|
    ----3----------------11------6---------------------2-|
    --4---------------------11-8-------------------------|
    ------------------------------------
  • Aquí está El Lagarto en Bajo, mi instrumento del alma.
    Un saludo para Al, que todavía no cree que saco temas a oído xD...
    
    
    
    
    G||------------------|------------------|
    D||------------------|------------------|
    A||------------------|------------------|
    E||------------------|------------------|
    
    
    
    ----------------------------------------------|
    ----------------------------------------------|
    --4--4-4-4-4-4--4-4-4-4-4--4-4-4-4------------|
    -----------------------------------0--0-0-0-0-|
    
    
    
    ----------------------------------------------|
    ----------------------------------------------|
    -----------------------------------2--2-2-2-2-|
    --0--0-0-0-0-0--0-0-0-0-0--0-0-0-0------------|
    
    
    
    ----------------------------------------------|
    ----------------------------------------------|
    --2--2-2-2-2-2--2-2-2-2-2--2-2-2-2------------|
    -----------------------------------2--2-2-2-2-|
    
    
    
    ----------------------------------------------|
    ----------------------------------------------|
    ------------------
  • +
    ¡Colabora con nosotros!
    Envíanos tu versión de esta canción



Video de Lagarto
[]




[Lagarto chords][Lagarto cifra]
© LaCuerda.net · aviso legal · privacidad · es · en · pt · contacto