Acordes de Guitarra » A »Albertucho » Mi estrella (Tab)

Mi estrella
Albertucho

Letras, Acordes y Tabs para Guitarra, Bajo y Ukulele

  •  DO (P.M.)
    Tengo que recurrir a mi poca inteligencia
    FA  (P.M.)                                  SOL (P.M.)
    Me esta quitando las ganas de andar por mi senda de hierba
                       DO (P.M.)
    Y la cubre con piedras
    
    No tiene nombre no existe
                 FA (P.M.)
    Pero puedo verla
    
    Es de metales preciosos
                    SOL (P.M.)
    Se expresa en madera
                            FA (P.M.)  SOL
    Donde ostias esta mi estrella.....aaa
    
    ESTRIBILLO
    
    DO                       SOL
    
  •  RE5 (P.M.)
    Tengo que recurrir a mi poca inteligencia
    MI5 (P.M.)
    Me esta quitando las ganas de
                          La5 [P.M.] (se mete una guitarra acustica
    k ace el acorde normal, en el segundo traste)
    andar por mi senda de hierba
                       Re5 (P.M.)(ritmo facilon)
    Y la cubre con piedras
    
    No tiene nombre no existe
                 MI5 (P.M.)
    Pero puedo verla
    
    Es de metales preciosos
                    La5 (P.M.)(guiarra acustica)
    Se expresa en madera
                            RE5 (P.M.)  MI5
    Donde ostias esta mi estrella.....aaa
    
    
  • Punteo después de cantar su estrofa Albertucho:
    -----------------------------------------------------------
    -----------------------------------------------------------
    -------------------------------------------------------8-9-
    ---------4-4-4h5-5-5p4-----4--------4-4-5----------9-9-----
    -5h7-7-7---------------7-7----5h7-7-------7h9-9-10---------
    -----------------------------------------------------------
    
    -----------------------------------------------------------
    -----------------------------------------------------------
    -9-9-9-9-8h9-----------------------------------------------
    -----------------------------------------------------------
    -----------------------------------------------------------
    -----------------------------------------------------------
    
    Punteo después de cantar su estrofa Kutxi:
    -----------------------------------------------------------
    -----------------------------------------------------------
    -------7-----7----7-7-9b11b9-7-9p7-6-----------------7h9p7-
    -7-7-
  • +
    ¡Colabora con nosotros!
    Envíanos tu versión de esta canción

Letra de Mi estrella
Tengo que recurrir a mi poca inteligencia
Me esta quitando las ganas de andar por mi senda de hierba
Y la cubre con piedras
No tiene nombre no existe
Pero puedo verla
Es de metales preciosos
Se expresa en madera
Donde ostias esta mi estrella.....aaa
ESTRIBILLO
Alumbra por turnos a quien la desea
Cuando me llora la abro de piernas
Y espera que cuente mil cuentos
Que a nadie interesan
Donde ostias esta mi estrella
Que sacude las cenizas que aun me queman
Las ordena y las escupe en puño y letra
Y espera que cuente mil cuentos
Que a nadie interesan
Le pregunto a mis sentidos uno a uno si recuerdan
El color de aquellas flores que envolvian a los poetas
Si es que estubiesen marchitas
Necesito que aparezcan
Que la rieguen kon su llanto
que se abra de vida y piernas
Donde t escondes bastarda
Donde ostias esta mi estrella
ESTRIBILLO
Alumbra por turnos a quien la desea
Cuando me llora la abro de piernas
Y espera que cuente mil cuentos
Que a nadie interesan
Donde ostias esta mi estrella
Que sacude las cenizas que aun me queman
Las ordena y las escupe en puño y letra
Y espera que cuente mil cuentos
Que a nadie interesan
Bueno pos ahi esta la verdadera transcripción con los arreglillos
(que no son pocos) para todos los que me la habeis pedido por el
mesenger.
Espero que os guste. Se la dedico al Manu, Gamarro, Ale,
Luis Blanco, Raul....y a todos los que estuvieron conmigo en el
Carranza.
Hasta otra




[Mi estrella chords][Mi estrella cifra]
© LaCuerda.net · aviso legal · privacidad · es · en · pt · contacto