Acordes de Guitarra » A »Albertucho » El pisito (Tab)

El pisito
Albertucho

Letras, Acordes y Tabs para Guitarra, Bajo y Ukulele

  • DO 
    No me digas que  te puedo defraudar
          LAm   
    no me digas que me encierro en mis adentros
                         FA 
    y que atento a la verdad
                     SOL                  FA 
    que con esas palabritas que hago camina-ar
                       SOL                        DO 
    quiero ponerte un pisito y justo arriba de un bar
    
    DO                                             LAm
    Quiero ponerte un pisito y justo arriba de un bar
                                                      FA 
    pa´ ir cogiendo y experiencia en las labores del hogar
                       SOL                       FA 
    y follar los dos juntitos y tenerme que levantar
                        SOL                         DO 
    porque fruto de tu olvido, tas dejao abierto el gas
    
    
  •     Fmaj7
    e||----------------------------------||
    B||---1--1----0--000-0h1p0-----------||
    G||---2----2--0--000-------0-0-------||
    D||---3-------0----------------3-2---||
    A||---3-------2----------------------||
    E||----------------------------------||
    
    
    Fmaj7 E Fmaj7 G  C
    
    C
    No me digas que  te puedo defraudar
          Am
    no me digas que me encierro en mis adentros
                         Fmaj7
    y que atento a la verdad
                     E                  Fmaj7
    que con esas palabritas que hago camina-ar
                       G                       C
    
  • e||----------------------------------||
    B||---1--1----0--000-0h1p0-----------||
    G||---2----2--0--000-------0-0-------||
    D||---2-------0----------------3-2---||
    A||---0-------2----------------------||
    E||----------------------------------||
    
    
    DO LAm FA SOL
    
    e||----------------------------------------------------||
    B||-------------5-----------------------5--8--5--------||
    G||--------4--5---7--5--7--5-------4--5---------7--5---||
    D||---5--7--------------------5--7---------------------||
    A||----------------------------------------------------||
    E||----------------------------------------------------||
    
    
    DO
    No me digas que  te puedo defraudar
    
  • +
    ¡Colabora con nosotros!
    Envíanos tu versión de esta canción

Letra de El pisito
No me digas que te puedo defraudar
no me digas que me encierro en mis adentros
y que atento a la verdad
que con esas palabritas que hago camina-ar
quiero ponerte un pisito y justo arriba de un bar
Quiero ponerte un pisito y justo arriba de un bar
pa´ ir cogiendo y experiencia en las labores del hogar
y follar los dos juntitos y tenerme que levantar
porque fruto de tu olvido, tas dejao abierto el gas
ESTRIBILLO
Quiero, tener techo pa vivir
ratonera de mis sueños
ser mi cuarto el mundo entero
y un florero de jardin
Quiero ponerte un pisito y justo arriba de un bar
pa´cuando me hablen de Dioses yo bajarme a tapear
porque nunca me ha gustao, arrodillarme a rezar
yo ya le rezo a mi niña pa´que me deje ir al bar
porque aunque no sea virgen yo la tengo en un altar.
ESTRIBILLO 2X
Mientras suena el solo de acordeon:
FaM, SolM, DoM, Lam, FaM, SolM, FaM, SolM, FaM, SolM, DoM.
4X.aprox




[El pisito chords][El pisito cifra]
© LaCuerda.net · aviso legal · privacidad · es · en · pt · contacto