Acordes de Guitarra » A »Airbag » Esta Noche (Tab)

Esta Noche
Airbag

Letras, Acordes y Tabs para Guitarra, Bajo y Ukulele

  • (D# A# Cm Gm G# D# Fm A#)
    
    D#            A#
    no quiero saber de ti
    Cm             Gm
    ya es tarde para mentir
    G#                    D#
    Hoy nuestro amor fracaso
    
                  Fm                    A#
    yo no pretendí que llegue a sufrir
            D#                  A#
    sabes bien que yo en verdad te ame
    Cm           Gm             G#                D#
    pero nunca vi caer la flor que se marchito
                        Fm              A#
    y el sueño que un día soñamos lo dos
    
    CORO
           G#                  D#
    
  • (A)
    
    D           A
    No quiero saber de ti
    Bm            F#m
    Ya es tarde para mentir
    G                 D                 Em
    Hoy nuestro amor fracaso yo no pretendí
                    A
    Que llegue a su fin
    
    D                       A
    Sabes bien que yo en verdad te ame
    Bm         F#m
    Pero nunca vi caer
      G                D
    La flor que se marchito
                    Em              A
    El sueño que un día soñamos los dos
    
    
  • e|-----------------------------------------------------
    B|-----------------------------------------------------
    G|-10/12--8-10/12-10-8-7--7/8-----7/8-7----------------
    D|-------8---------------------10------8/10-8--8/10-10-
    A|----------------------------10-----------------------
    E|-----------------------------------------------------
    
    e|-------------------------------------------|
    B|-------------------------------------------|
    G|-8-8/12-12-10/12/10-8-8/10---8-8/12-10-----|
    D|--------------------------10---------------|
    A|-------------------------------------------|
    E|-------------------------------------------|
    
    
    D#           A#
    No quiero saber de ti
    Cm            Gm
    Ya es tarde para mentir
    G#                 D#                 Fm
    
  • e|-------------------------------------------------------------|
    B|-------------------------------------------------------------|
    G|-10/12--8-10/12-10-8-7----7/8-----7/8-7--5--3--3/5------3/5/3|
    D|-------8----------------------10--------------------6--------|
    A|-----------------------------10--------------------6---------|
    E|-------------------------------------------------------------|
    
    ATENCIÓN: al terminar la parte de arriba variar el terminocon el comienzo
    de la otra parte(tratar de darle un toque diferente)
    Ejemplo: Si la 1ra parte terminaste con un slide, empezar 2da martillando
    
    2da parte
    e|----------------------------|
    B|----------------------------|
    G|-10/12/10--8/10--8-12/10-8--|
    D|--------------------10------|
    A|----------------------------|
    E|----------------------------|
    
    
    
  • e|-----------------------------------------------------
    B|-----------------------------------------------------
    G|-10/12--8-10/12-10-8-7--7/8-----7/8-7----------------
    D|-------8---------------------10------8/10-8--8/10-10-
    A|----------------------------10-----------------------
    E|-----------------------------------------------------
    
    e|---------------------------------------------
    B|---------------------------------------------
    G|-8-10/12-10-10/12-10-8-8h10-------8-10/12-10-
    D|----------------------------10-10------------
    A|---------------------------------------------
    E|---------------------------------------------
    
    e|-----------------------------------------------------
    B|--------------9-8-8----------------------------------
    G|------7-7-7-7-------8-8-10-10-10-10/12-12/13-12------
    D|-8-10------------------------------------------------
    A|-----------------------------------------------------
    E|-----------------------------------------------------
    
  • +
    ¡Colabora con nosotros!
    Envíanos tu versión de esta canción

Letra de Esta Noche
no quiero saber de ti
ya es tarde para mentir
Hoy nuestro amor fracaso
yo no pretendí que llegue a sufrir
sabes bien que yo en verdad te ame
pero nunca vi caer la flor que se marchito
y el sueño que un día soñamos lo dos
esta noche soñé con tu amor
y no pude evitar sonreír
el recuerdo guardado quedo
tan fuerte en ser y en mi corazón
y aunque el tiempo no pudo sanar
estoy agonizando por ti
ya no quedan palabras de mas
no queda valor para que te siga amando
ACOMPAÑAMIENTO (D# A# Cm Gm G# D# Fm A#)
Se que moriré…. Por tu amor
Antes que entiendas que fuiste
Lo mas dulce, lo mas triste
sabes bien que yo en verdad te ame
pero nunca vi caer, la flor que se marchito
y el sueño que un día soñamos lo dos
ACOMPAÑAMIENTO AL SOLO (G# D# A# Cm G# D# Fm A#)
esta noche soñé con tu amor
y no pude evitar sonreír
el recuerdo guardado quedo
tan fuerte en ser y en mi corazón
y aunque el tiempo no pudo sanar
estoy agonizando por ti
ya no quedan palabras de mas
no queda valor para que te siga amando
el recuerdo guardado quedo
tan fuerte en ser y en mi corazón




[Esta Noche chords][Esta Noche cifra]
© LaCuerda.net · aviso legal · privacidad · es · en · pt · contacto