Acordes de Guitarra » A »Agora » Sin Despertar (Tab)

Sin Despertar
Agora

Letras, Acordes y Tabs para Guitarra, Bajo y Ukulele

  • E|-|-----------0-----------------0------------------0-------------0-----|-|
    B|-o--------4----4-------------4---4--------------2---2---------4---4~--o-|
    G|-|------6--------6---------6-------6----------2-------2-----4---------|-|
    D|-|----6------------6-----6-----------6---2--4-----------4/6-----------|-|
    A|-o--4------------------7----------------------------------------------o-|
    E|-|--------------------------------------------------------------------|-|
    
    
    E|---------0-0-------------0-0-------------0-0-------------0-0------------|
    B|-----0--------0--------0-----0---------0-----0---------0-----0----------|
    G|---2---2--------2----2--2------2-----2--2------2-----2--2------2--------|
    D|---------------------------------------------------1--------------------|
    A|-0-----------------2---------------4------------------------------------|
    E|------------------------------------------------------------------------|
    
    
    E|---------0-0-------------------0~-------------------------|
    B|-----0-------0---------0-------0~-------------------------|
    G|---2---2-------2-----2---2-----2~-------------------------|
    D|-------------------------------0~-------------------------|
    
  • +
    ¡Colabora con nosotros!
    Envíanos tu versión de esta canción

Letra de Sin Despertar
VERSO
Es tristeza que invade
esa mente que vaga en el tiempo
que no encuentra salida en sus sentimientos
Dejaras de soñar sin despertar ocultas la verdad
tu realidad perdida esta
Encierras llanto en la oquedad
tu vida clama tempestad
Cuando el destino te alcance
y tu alma encuentre soledad
cuando tu ira se acabe
y el pasado no tenga una solución para ti
no no llegará tal vez no sea un día más
*Los mismos acordes que en el primer verso
La soberbia ha cegado
esas voces que son un lamento
son ilusiones perdiendo su aliento (RIFF 3)
Cuando el destino te alcance
y tu alma encuentre soledad (RIFF 3)
cuando tu ira se acabe
y el pasado no tenga una solución para ti
no una vez más tal vez no quieras despertar
Se queda el bajo con un slap y luego entra el piano pero
tambien se puede hacer en guitarra los acordes son.
C#m y en seguida el mismo pero una octava arriba
G#5 y luego rasgueas las cuerdas de abajo con el acorde completo
El solo de guitarra no lo he sacado bien pero lo puedes
improvisar en una penta de C#m
Veo en tus manos una historia sin ayer
las horas pasan sin saber
Cuando el destino te alcance
y tu alma encuentre soledad(RIFF 3)
cuando tu ira se acabe
y el pasado no tenga una solución para ti
no no llegará tal vez no sea un día más
tal vez no quieras despertar
(RIFF 5)
RIFF 1
RIFF 2 RIFF 3
RIFF 4
RIFF 5
Los acordes que esta asi G#/C5 y F#/A#5 no se si
sean asi de todas formas les pongo la digitación
G#/C5 F#/A#5
Bueno pues espero y les haya gustado,
creo que la canción esta un 90% bien, si no les convence
pues escribanme mi correo es sagitetos@hotmail.com
SALUDOS DESDE MÉXICO¡¡¡

Video de Sin Despertar
[]




[Sin Despertar chords][Sin Despertar cifra]
© LaCuerda.net · aviso legal · privacidad · es · en · pt · contacto