Acordes de Guitarra » A »Agora » Refugio Vital (Tab)

Refugio Vital
Agora

Letras, Acordes y Tabs para Guitarra, Bajo y Ukulele

  • LA pena. SALUDOS
    
    
    INTRO
    
           |--|             |--|              |--|    |---|
            PM               PM                PM      PM
    E|-------------|--|-------------|--|------------------------|
    B|-------------|--|-------------|--|------------------------|
    G|-2-----------|--|-2-----------|--|-2----------------------|
    D|-2--------2--|--|-2--------2--|--|-2--------2-------------|
    A|-0----0-0-0--|--|-0----0-0-0--|--|-0----0-0-0----0-0-0----|
    E|-------------|--|-------------|--|------------------------|
         |--|        |---|    |--|   |---|
          PM          PM       PM     PM
    E|----------------------------------------|-----------------|
    B|----------------------------------------|-----------------|
    G|----------------------------------------|-------9-7-------|
    D|-2--------2--10-9-7-----2------2--------|-7-10------9-----|
    A|-0----0-0-0---------10--0--0-0-0--0-0-0-|-------------10--|
    
  •                             Refugio Vital
    
    Visita: http://www.agorasite.com.mx
    
    dudas?????
    
    myspace.com/alejandrolauyola
    
    Música original de Agora
    
    Apoyen a esta banda de Metal Mexicano
    
    
    
              |--3--|                               |--3--|
         Q    E  E  E  H                       Q    E  E  E  H
    G||-------------------------|-----------|-------------------------|
    D||-------------------------|-----------|-------------------------|
    A||-------------------------|-----------|-------------------------|
    E||--5----5--5--5-----------|-----------|--5----5--5--5-----------|
    B||-------------------------|-----------|-------------------------|
    
    
                  |--3--|  |--3--|  |--3--|  |--3--|
                  E  E  E  E  E  E  E  E  E  E  E  E
    -----------|--------------------------------------|
    -----------|--------------------------------------|
    -----------|--------------------------------------|
    -----------|--5--5--5--5--5--5--5--5--5--5--5--5--|
    -----------|-----------------------------------
  • +
    ¡Colabora con nosotros!
    Envíanos tu versión de esta canción

Letra de Refugio Vital
PM PM PM PM
PM PM PM PM
|--| |--| |--|
PM PM PM
PM PM
VERSO |--| |--| |--| |--| |--| |--| |--|
PM PM PM PM PM PM PM
PM PM
PM PUENTE
PM PM
PM PM
PM PM
BREAK
PM PM PM PM
PM
PM PM PM
|--| |--|
PM PM
PM
PM PM PM PM PM PM PM
PM PM
PM PM PM
PM
PM PM
PM PM
PM PM
PM PM
PM
NOMENCLATURA
A.H:Armónico artificial
S.H:Semi armónico
h:hammer-on
p:pull-off
PM:Palm Mute
~:vibrato
X:apagar cuerdas con la mano del mástil
bf:bend full
():nota fantasma

Video de Refugio Vital
[]




[Refugio Vital chords][Refugio Vital cifra]
© LaCuerda.net · aviso legal · privacidad · es · en · pt · contacto