Acordes de Guitarra » A »Afrodisiaco » El Tiempo (Tab)

El Tiempo
Afrodisiaco

Letras, Acordes y Tabs para Guitarra, Bajo y Ukulele

  • F#m    B    G#m    C#m
    F#m    G#m    C#m    A-E
    
    
    A    C#m    Bm    F#m
    EL tiempo va dejando huellas en mi vida quizas lentamente
    G#m    C#m    A-E
    Pues la verdad no quiero perderte
    
    A    C#m    Bm    F#m
    Aferrado a mis sentimientos, una cruz en mi vida ya yo llevo
    G#m    C#m    F#m    B
    Y ese recuerdo vive conmigo, quize un besito y te diste la vuelta
    G#m    C#m
    Hoy de nuevo cerraste la puerta
    F#m    G#m    C#m
    Quizás mañana o mas tarde será cuando te acuerdes de mi
    F#m    B    G#m    C#m
    Intente seguirte la corriente ni un salud me dijiste siquiera
    F#m    G#m    C#m
    
  • Gm  C  Am  Dm
    Gm  Am  Dm         Bb-F
    
    e:----------13------------------------------------
    B:----13-15------------------------------------13-
    G:--------------12h13--12-12-12-12-12-10-12/14----
    D:------------------------------------------------
    A:------------------------------------------------
    E:------------------------------------------------   x2
    
    e:----------13------------------------------------------------------
    B:----13-15------------------------------------13-------------------
    G:--------------12h13--12-12-12-12-12-10-12/14----12h13-12-10-12-10v
    D:------------------------------------------------------------------
    A:------------------------------------------------------------------
    E:------------------------------------------------------------------
    
    
         Bb                  Dm
    El tiempo va dejando huellas
    
  • +
    ¡Colabora con nosotros!
    Envíanos tu versión de esta canción

Letra de El Tiempo
El tiempo va dejando huellas
en mi vida quizas lentamente
pues la verdad no quiero perderte
Aferrado a mis sentimientos
una cruz en mi vida yo llevo
y ese recuerdo vive conmigo
Quice un besito y te diste la vuelta
hoy de nuevo cerraste la puerta
Quizas mañana o mas tarde será
cuando te acuerdes de mi!!
Intente seguirte la corriente
ni un salud me dijiste si quiera
Quizas mañana o mas tarde será
cuando te acuerdes de mi!!
Esta noche saldre a buscarte
yo se que estas ahi como siempre
tan bella, dulce e infiderente
El tiempo va dejando huellas
en mi vida quizas lentamente
pues la verdad no quiero perderte
Quice un besito y te diste la vuelta
hoy de nuevo cerraste la puerta
Quizas mañana o mas tarde será
cuando te acuerdes de mi!!
Intente seguirte la corriente
ni un salud me dijiste si quiera
Quizas mañana o mas tarde será
cuando te acuerdes de mi!!
Quizas mañana o mas tarde será
cuando te acuerdes de mi!!
Quizas mañana o mas tarde será
cuando te acuerdes de mi!!
Cualquier cancion o duda me escriben: henry_24_6@hotmail.com

Video de El Tiempo
[]




[El Tiempo chords][El Tiempo cifra]
© LaCuerda.net · aviso legal · privacidad · es · en · pt · contacto