Acordes de Guitarra » A »Abracadabra » En Realidad (Tab)

En Realidad
Abracadabra

Letras, Acordes y Tabs para Guitarra, Bajo y Ukulele

  • DO
    En realidad
                    REm
    solo queria felicitarte ya lo vez
                 SOL7
    por tu nuevo amor
                    DO    SOL7
    y que sigas adelante
    
    
          DO
    En realidad 
                           REm
    todas mis cartas eran broma es verdad
            SOL7
    y mis palabras
                   DO
    fueron solo soledad
    
    
    
  •       D                         Em
    En realidad, solo quería felicitarte ya
                     A                         D
    lo vez, por tu nuevo amor, y que sigan adelante.
                                         Em
    En realidad, todas mis cartas eran broma es verdad,
             A                   D
    Y mis palabras fueron solo soledad.
    
            Bm                          A
    En realidad yo ya tengo quien me quiera, lejos de
       G             A             D D7
    aquí, lejos de todos, lejos de ti.
    
                    G            A7
    Olvida lo que dije un día de ti dije que
          D          Bm
    te quería solo mentí Solo estaba
       G            A7         D            D7
    jugando si eso es, Jugué contigo ya lo ves
    
  •                     G       A7               D      Bm              Em     A7
    e ---------------------------------------------------------------------------------
    B -------7--5--7--7/8---8-7-5----5-----5---5/7--7/5/8-----3----3--3/5--5/3/2-------
    G ---5/7--7-------------------4/6--4/6---6-------------2/4--2/4--2-----------------
    D ---------------------------------------------------------------------------------
    A ---------------------------------------------------------------------------------
    E ---------------------------------------------------------------------------------
    
    
    e---17/19/17-----------------
    B---17/19/17-----------------
    G----------------------------
    D----------------------------
    A----------------------------
    E----------------------------
    
            D                       Em
    En realidad, solo queria felicitarte ya lo vez
             A7                        D   A7
    por tu nuevo amor, y que sigan adelante
    
  • +
    ¡Colabora con nosotros!
    Envíanos tu versión de esta canción

Letra de En Realidad
En realidad
por tu nuevo amor
y que sigas adelante
En realidad
todas mis cartas eran broma es verdad
y mis palabras
fueron solo soledad
En realidad
yo ya tengo quien me quiera
lejos de aqui, lejos de todo, lejos de ti.
Olvida lo que dije un dia de ti
dije que te queria solo menti
jugue contigo ya lo vez.
Olvida ya las tardes que te ame
tirados en la arena que yo ya olvide
y se feliz como debes de ser
y olvidate de mi.
En realidad
tuve muchas veces la oportunidad
de confesarte, lo que no senti jamas.
En realidad
eres todo lo que yo llegue a soñar
pero es muy tarde y ahora tengo que callar
En realidad
sera dificil olvidarte
nunca sabras, cuanto te quise, mucho en realidad.
Olvida lo que dije un dia de ti...




[En Realidad chords][En Realidad cifra]
© LaCuerda.net · aviso legal · privacidad · es · en · pt · contacto