Acordes de Guitarra » A »Abel Pintos » Revolución (Tab)

Revolución
Abel Pintos

Letras, Acordes y Tabs para Guitarra, Bajo y Ukulele

  • Am E7 Am E7
    Introduccion
    
          Am                     Dm
    Desperte muy temprano a la mañana,
             E7                      Am
    todo el peso de la culpa me aplastò.
                                  E7
    Algo huele a vencido en esta cama,
                                          Am
    ¿son los años,son las dudas o el rencor?.
             A7                        Dm
    Que dificil se me puso al darme cuenta
               B7                    E
    que algo nuevo dentro mio despertò,
            Am                      E7
    pero bueno,no le temo a los fantasmas,
                                  Am  A7
    el coraje es un aliado del amor.
            Dm
    
  •             SIm                            FA#            SOL
    E||-------|------------------------------|----------------------------------|
    B||-------|------------------------------|----------------------------------|
    G||-------|--------------11--9------9----|----------------------------------|
    D||-------|--9-9-9-9-12---------12-------|----------11----------------12----|
    A||-------|------------------------------|--9-9-9-9-------10-10-10-10-------|
    E||-------|------------------------------|----------------------------------|
    
      MIm                 LA
    ------------------------------------------|----------------------------|
    ------------------------------------------|----------------------------|
    ------------------------------------------|----------------------------|
    ----------------------7-7-7-7-11-11-11-11-|--7-7-7--------7-7-7--------|
    --7-7-7-7-10-10-10-10---------------------|--5-5-5--------5-5-5--------|
    ------------------------------------------|----------------------------|
    
    
    ------------------------------|----------------------------------|
    ------------------------------|----------------------------------|
    --------------11--9------9----|----------------------------------|
    
  • +
    ¡Colabora con nosotros!
    Envíanos tu versión de esta canción

Letra de Revolución
Introduccion
Desperte muy temprano a la mañana,
todo el peso de la culpa me aplastò.
Algo huele a vencido en esta cama,
¿son los años,son las dudas o el rencor?.
Que dificil se me puso al darme cuenta
que algo nuevo dentro mio despertò,
pero bueno,no le temo a los fantasmas,
el coraje es un aliado del amor.
Y algo para destacar, como vos no hay nadie igual,
es que juntos vivimos momentos incomparables.
Aunque dude mi razon ,tuyo es mi corazon,
el pecado es la cruz de los dioses y los mortales.
Algo para destacar como vos....
Musica
Como vos no hay nadie igual, no hay nadie,
no hay nadie igual
Y algo para destacar, como vos no hay nadie igual,
es que juntos vivimos momentos incomparables.
Aunque dude mi razon ,tuyo es mi corazon,
el pecado es la cruz de los dioses y los mortales.
Algo para destacar como vos....
no hay nadie igual




[Revolución chords][Revolución cifra]
© LaCuerda.net · aviso legal · privacidad · es · en · pt · contacto
DINAMICO