Acordes de Guitarra » 0-9 »La 5a. estación » Niña (Tab)

Niña
La 5a. estación

Letras, Acordes y Tabs para Guitarra, Bajo y Ukulele

  • C            Am
    Hay una niña sola en su habitacion
    
    C            Am
    Jugando con el aire y su imaginacion
    
    C                  Am
    no comparte tesoros ni tampoco secretos
    
    C                    Am
    su universo es grande, más que el mundo entero.
    
    
    Pre-estribillo
    
    C
    Ella ríe sin saber porque
    
    G
    ella habla sin saber porque
    
  • Em   Aadd9    Cadd9   Dsus2/B
    
    
    Em           Aadd9
    Hay una niña sola en su habitacion
    
    Cadd9            Dsus2/B
    Jugando con el aire y su imaginacion
    
    Em                 Aadd9
    no comparte tesoros ni tampoco secretos
    
    Cadd9                 Dsus2/B
    su universo es grande, más que el mundo entero.
    
    
    Pre-estribillo  [Rasgueado]
    
    Cadd9
    Ella ríe sin saber porque
    
  • Dsus2     Dsus4    Cadd9    Cadd9/B
    e-0-|     |-3-|    |-3-|    |-0-|
    b-3-|     |-3-|    |-3-|    |-1-|
    G-2-|     |-2-|    |-0-|    |-0-|
    D-0-|     |-0-|    |-2-|    |-0-|
    A---|     |---|    |-3-|    |-2-|
    E---|     |---|    |---|    |---|
    
    Intro:
    e-----0---0-----|-----0---0-------|-----0------------|-----0---3----||
    b-------0-0-----|-------1-1-------|-------1-1--------|-------3-3----||
    G---------0-----|---------2-------|---------0--------|---2----------||
    D---2-----2-----|---2-----2-------|---2-----2--------|-0------------||
    A---------------|-0-----------0-2-|-3-----------3/7--|--------------||
    E-0-------------|-----------------|------------------|--------------||
    
    
    NOTA: El punteo en el verso es casi igual q el de la intro
    
    
    
  •   Em7           A7sus4          C                D
    |------0--------|-----0--------|------0------------|----0----3----|
    |----------3----|---------3----|---------3---------|-------3------|
    |---0---------0-|--0---------0-|---0-------0-------|--2------2----|
    |---------------|--------------|---------------0/2-|0-------------|
    |---------------|0-------------|3------------------|--------------|
    |0--------------|--------------|-------------------|--------------|
    
    
    Em              Am7                  C
      Hay una niña sola en su habitación
    
                          D
      Jugando con el aire  y su imaginación
    
    Em                   Am7                     C
      no comparte tesoros   ni tampoco secretos
    
                            D
      su universo es grande,  más que el mundo entero.
    
  • +
    ¡Colabora con nosotros!
    Envíanos tu versión de esta canción

Letra de Niña
Hay una niña sola en su habitacion
Jugando con el aire y su imaginacion
no comparte tesoros ni tampoco secretos
su universo es grande, más que el mundo entero.
Pre-estribillo
Ella ríe sin saber porque
ella habla sin saber porque
ella mira a su alrededor
y no ve más que dolor
Estribillo x2
niña que va a ser de tí
sin sueños que cumplir
con tu vida no querrás seguir
Cien noches de lagrimas y de fría oscuridad
El calor mas cercano era el de la soledad
tiene tanto miedo a que puedan entrar
en su fragil burbuja de irrealidad
Preestribillo
Estribillo x2
Esta es mi primera transcripción, puede que tenga fallos.
Se la dedico a todos mis amigos y a mi madre.




[Niña chords][Niña cifra]
© LaCuerda.net · aviso legal · privacidad · es · en · pt · contacto