Acordes de Guitarra » 0-9 »La 5a. estación » Daría (Tab)

Daría
La 5a. estación

Letras, Acordes y Tabs para Guitarra, Bajo y Ukulele

  • Intro: F - Dm7 - Gm - C - F
    
    F             Dm7             F
    Daría lo que fuera por tener
                     Dm7                 Gm
    Tan sólo unos segundos para desaparecer
         Bb                      F
    Pero sigo tan visible como ayer.
    
    F             Dm7            F
    Daría lo que fuera por saber
                        Dm7
    Que el suelo sigue aquí bajo mis pies
         Gm        Bb                       C     Bb
    Pero no, sigo siendo tan volátil como ayer.
    
    CORO:
    
         F   C                Dm7  C
    Y daría,   tantas cosas daría
    
  • [F]
    
      F                 Dm
    1|3/(5)~~5-3--5-3-----
    2|----------------5-6-
    3|--------------------
    
      Gm       A#       C
    1|5/(6)~~6-5--6-5-----
    2|----------------6---
    3|------------------5-
    
                   F
    1|--6(5)--3-5-6~~-
    2|5------5---------
    3|-----------------
    
    F             Dm
    Daría lo que fuera por tener
    F                Dm                  Gm
    
  • -------
    
            [F]   [Dm]  [Gm]    [C]   [A#]
       e|----8-----5-----10------8-----6----|
       b|---10-----6-----11------8-----6----|
       g|---10-----7-----12------9-----7----|
       d|---10-----7-----12-----10-----8----|
       a|----8-----5-----10-----10-----8----|
       e|------------------------8-----6----|
    
    
    Intro: F
    -----
             F                          Dm
    e||---------------------------------------
    b||----8/10----8^10-8--8^10-8-------------
    g||-----------------------------9-9/10----
    d||---------------------------------------
    a||---------------------------------------
    e||---------------------------------------
    
  • +
    ¡Colabora con nosotros!
    Envíanos tu versión de esta canción

Letra de Daría
Daría lo que fuera por tener
Tan sólo unos segundos para desaparecer
Pero sigo tan visible como ayer.
Daría lo que fuera por saber
Que el suelo sigue aquí bajo mis pies
Pero no, sigo siendo tan volátil como ayer.
Y daría, tantas cosas daría
Sólo porque este mundo no girara tan de prisa
Tantas cosas daría por no ver tus manías
Por quedarme colgado una vez mas de tu sonrisa
Daría lo que fuera por saber
Que piensas cuando dices que todo va bien
Tal vez, tendría una razón para correr.
Y ya ves no me quedan tantas cosas por perder
Y daría.




[Daría chords][Daría cifra]
© LaCuerda.net · aviso legal · privacidad · es · en · pt · contacto