Acordes de Guitarra » 0-9 »La 5a. estación » Que te quería (Tab)

Que te quería
La 5a. estación

Letras, Acordes y Tabs para Guitarra, Bajo y Ukulele

  • intro: F G Am Am F G
    
              C         G    Am
    La llama se apagó,
    
      F
    No sé,
    
              C         G    Am
    Matamos la ilusión,
    
      F
    Tal vez,
    
                Am    %
    Y dónde quedo yo
    
                Dm    %
    En este mundo sin color
    
    
  • e|--7h9p7-------------8---------------------------------------------------
    B|--------10p8-10--10---10-8------88---8b108------------------------------
    G|-----------------------------s9----9------7b87p5-5--7b87-55-4h5-9s------
    D|------------------------------------------------7-----------------------
    A|------------------------------------------------------------------------
    E|------------------------------------------------------------------------
    
    e|--------------------------------------------------------------------------
    B|----------------------------------------------------9h10h11h12-11h12h13h14
    G|--12-9h10p9-9---------9h10p9---9h10h11h12-11h12h13h14---------------------
    D|-------------12p10-12-----------------------------------------------------
    A|--------------------------------------------------------------------------
    E|--------------------------------------------------------------------------
    
    e|--15-12h13p12---12-13---s20-19p17---------------------------------------
    B|--------------15-----------------20----------20-------------------------
    G|------------------------------------17p16h17----------------------------
    D|------------------------------------------------------------------------
    A|------------------------------------------------------------------------
    E|------------------------------------------------------------------------
    
  •   F        G     Am
    E--5--7--8--7-----8--10--12--10--8--7h5--------------
    B----------------------------------------8-----------
    G----------------------------------------------------
    D----------------------------------------------------
    A----------------------------------------------------
    E----------------------------------------------------
      F         G
    E--5--7--8--10---------------------------------------
    B----------------------------------------------------
    G----------------------------------------------------
    D----------------------------------------------------
    A----------------------------------------------------
    E----------------------------------------------------
             C        G  F#5-G-Am   F
    La llama se apagó,          no sé.
            C        G   F#5-G-Am     F
    Matamos la ilusión,         tal vez.
             Am              Dm
    Y donde quedo yo en este mundo sin color;
    
  • +
    ¡Colabora con nosotros!
    Envíanos tu versión de esta canción
  • Tutorial
    HD
    Que te quería - La 5ª Estación Guitarra FACIL Demo con letra y acordes
    3:38

Letra de Que te quería
La llama se apagó,
No sé,
Matamos la ilusión,
Tal vez,
Y dónde quedo yo
En este mundo sin color
Sin historias que contarte
Sin saber cómo explicarte.
ESTRIBILLO:
Que hoy te veo
Y aunque lo intente no se me olvida
Que eras tú el que no creía en las despedidas
Que sigo siendo la misma loca que entre tus sábanas se perdía,
Y a fin de cuentas no soy distinta de aquella idiota.
Que te quería.
...
No importa como fue
Ni quien
Queriamos beber
Sin sed
Y donde quedo yo
En este mundo sin tu voz,
Ignorando las señales
que me llevan a encontrarte.
ESTRIBILLO:
Que hoy te veo
Y aunque lo intente no se me olvida
Que eras tú el que no creía en las despedidas
Que sigo siendo la misma loca que entre tus sábanas se perdía,
Y a fin de cuentas no soy distinta de aquella idiota.
Que te quería.
...
Que todavia espera verte sonrreir
Que todavia espera verse junto a ti.
Que hoy te veo
Y aunque lo intente no se me olvida
Que eras tú el que no creía en las despedidas
Que sigo siendo la misma loca que entre tus sábanas se perdía,
Y a fin de cuentas no soy distinta de aquella idiota.
Que te quería.
Que sigo siendo la misma loca que entre tus sábanas se perdía,
Y a fin de cuentas no soy distinta de aquella idiota.
Que te quería.
Cualquier duda escribirme a mi correo chachi41096@hotmail.com
I <3 KATY PERRY




[Que te quería chords][Que te quería cifra]
© LaCuerda.net · aviso legal · privacidad · es · en · pt · contacto