Acordes de Guitarra » 0-9 »4 en Do » Caida Libre (Tab)

Caida Libre
4 en Do

Letras, Acordes y Tabs para Guitarra, Bajo y Ukulele

  • INTRO:FA,SOL,DO
          FA,SOL,DO
          REm,SOL7,DO-MI7-LAm
          REm,SOL7,DO,SOL7
    
              DO  MI7                 LAm
    Tocar el cielo   no estaba en mis deseos
                 FA                         SOL
    pues desde siempre se que a sido inalcanzable
           FA    SOL            DO
    querer volar tampoco fue mi sueño,
                   FA                       SOL
    porque en la altura no me siento nada estable
            DO   MI7           LAm
    pero llegaste   con magica ternura y aunque era
          REm                SOL7
    una locura lo tuve que intentar
    
               REm                         SOL
    tus besos brujos me elevaron hasta el cielo
    
  • Este es el acompañamiento de la canción en el principio.
    
    E --------------------------------------------------1--0--0-------------------------------------------
    B --------------------------3--1--0--0----------------------3--3--1--1--1/3---------------------------
    G ----0--0--0/2--0--2--0--------------2--0----2------------------------------0------------------------
    D -2--------------------------------------------------------------------------------------------------
    A ----------------------------------------------------------------------------------------------------
    E ----------------------------------------------------------------------------------------------------
    
    E -----------------------------------------10-10--8--7--7---------------------------12--10--8--7------
    B -----------5--6--8--8/10--8--10--8---------------------10--8-------8/10--10-------------------8-----
    G ----5--7----------------------------------------------------------------------------12--10--8--7----
    
  • +
    ¡Colabora con nosotros!
    Envíanos tu versión de esta canción

Letra de Caida Libre
Tocar el cielo no estaba en mis deseos
pues desde siempre se que a sido inalcanzable
querer volar tampoco fue mi sueño,
porque en la altura no me siento nada estable
pero llegaste con magica ternura y aunque era
una locura lo tuve que intentar
tus besos brujos me elevaron hasta el cielo
y quise desafiar la gravedad, fue tan hermoso
remontar contigo el vuelo, pero mis alas
no eran de verdad
y me soltaste donde no soplaba el viento,
sin darme tiempo nisiquiera de intentar
aterrizar planeando bien mis sentimentos
y fue en caida libre mi final.
pero llegaste con magica ternura y aunque era
una locura lo tuve que intentar
tus besos brujos me elevaron hasta el cielo
y quise desafiar la gravedad, fue tan hermoso
remontar contigo el vuelo, pero mis alas
no eran de verdad
y me soltaste donde no soplaba el viento,
sin darme tiempo nisiquiera de intentar
aterrizar planeando bien mis sentimentos
y fue en caida libre mi final.
Buena rola!

Video de Caida Libre
[]




[Caida Libre chords][Caida Libre cifra]
© LaCuerda.net · aviso legal · privacidad · es · en · pt · contacto