Tablatura para Guitarra de La 25: Nena bien
Conexión · Inscripción
Letras y Acordes
Pantalla Completa
Imprimir
Versión Texto
Añadir Favorito
Otras Versiones

Mostrar Diagramas
Desfile Automático
Manipular Acordes
Formato del Texto


Nena bien(TAB)

La 25

calidad:
250323
AUTOR: Junior, Ponch
ALBUM: Con el Rock en las Venas (2004)
Enviado por Rafael
|-----------------------
|-----------------------
|---4brp2---2-----2-2-2-
|---------4------4------
|-----------------------
|-----------------------

|-----------------------
|-----------------------
|---4brp2---2---2---2-2-   X3
|---------4---4---4-----
|-----------------------
|-----------------------

              Nena bien
|-----------------------------------------------------------
|-----------------------------------------------------------
|---4brp2---2---2---2-2----4brp2---2---2---2-2----4brp2---2-
|---------4---4---4--------------4---4---4--------------4---
|-----------------------------------------------------------
|-----------------------------------------------------------

de la calle residencial                     podes andar
           |---------------------------------------------------------------
           |---------------------------------------------------------------
           |-4b-4b-4b-2--4b^p2----4b-4b-4b-2--4b^p2-----4b-4b-4b-2--4b^p2--
           |------------------4--------------------4---------------------4-
           |---------------------------------------------------------------
           |---------------------------------------------------------------

              Hasta las ocho nada mas                          tu mama dice
|-------------               ---------------------------------------------
|-------------               ---------------------------------------------
|--4b-4b-4b-2-               -4b-4b-4b-2--4b^p2-----4b-4b-4b-2--4b^p2-----
|-------------               ------------------4---------------------4----
|-------------               ---------------------------------------------
|-------------               ---------------------------------------------

                                   toda la noche estudiaras
|----------------------------------
|----------------------------------
|-4b-4b-4b-2--4b^p2-----4b-4b-4b-2-
|------------------4---------------
|----------------------------------
|----------------------------------

y así sigue...

b: bend
r: release
p: pull off
b^: aka deja estirada un tiempito mas

[bueno es mi primer transcripcion, probablemente no este muy bien,
pero igual algo suena]
Este fichero es trabajo propio de su transcriptor y representa su interpretación personal de la canción. El material contenido en esta página es
para exclusivo uso privado, por lo que se prohibe su reproducción o retransmisión, así como su uso para fines comerciales.

© LaCuerda.net · Aviso Legal · Privacidad