Acordes de Guitarra » 0-9 »La 25 » Nadie (Tab)

Nadie
La 25

Letras, Acordes y Tabs para Guitarra, Bajo y Ukulele

  •     G   A   G    D
    e|--3-3-5-5-3-3--2-2-2-2-----|
    B|--3-3-5-5-3-3--3-3-3-3-----|
    G|--4-4-6-6-4-4--2-2-2-2-----|
    D|--5-5-7-7-5-5--0-0-0-0-----|
    A|--5-5-7-7-5-5--------------|
    E|--3-3-5-5-3-3--------------|
    
        G   A   G    D
    e|--3-3-5-5-3-3--2-2-2-2-----|
    B|--3-3-5-5-3-3--3-3-3-3-----|
    G|--4-4-6-6-4-4--2-2-2-2-----|
    D|--5-5-7-7-5-5--0-0-0-0-----|
    A|--5-5-7-7-5-5--------------|
    E|--3-3-5-5-3-3--------------|
    
        G   A   G    D       A
    e|--3-3-5-5-3-3--2-2-2-2-0-0-0-0-|
    B|--3-3-5-5-3-3--3-3-3-3-2-2-2-2-|
    G|--4-4-6-6-4-4--2-2-2-2-2-2-2-2-|
    
  • ************************* ayrton25 **********************************
    
         _____________________________________
         /
    +---+---------------------------------------+---+
    |   | 1 | 2 | 3 | 4 | 5 | 6 | 7 | 8 | 9 | 10| D |
    +---+---------------------------------------+---+
          _____________________________________/
    
    SOLO:
    
    4/6-(5)-5......6-(5)-5...6-(6)-6-(6)-6-5/4....
    4/6-(5)-5......6...(5)-5-(5).....5......
    
    ATENCION: los puntos suspensivos significa dejar sonar la nota!!!
    
    
    **********************************************************************
    Saludos!!!...
  • +
    ¡Colabora con nosotros!
    Envíanos tu versión de esta canción

Letra de Nadie
Voy a caminar por donde nadie camino,
voy a creer qe te fuiste y que quede solo,
despues de todo se qe no estuvo tan mal,
haber vivido tanto sin descansar..
es que a veces es mejor anhelar un sueño
que conquistar un mundo y despues no saber que hacer..
voy a abrir los portones qe nunca nadie abrio,
me sentare a escuchar hasta que termine el show,
me quedare dormido junto a tu bolsillo,
despertar mas tarde,O NUNCA DESPERTAR..
despues de todo no estuvo tan mal,
haber vivido..vivido tanto sin descansar..
[Armonica]
voy a trepar por donde nunca nadie trepo,
voy a encender el cielo con una luz de fe,
para qe me escuchen y llegaremos todos
y pasaremos juntos sin pagar el show,
y cada vez qe lleguen aca ,
al cielo mirar,resar, y pedir prosperidad..
prosperidad.. prosperidad..
posreridaaaaad




[Nadie chords][Nadie cifra]
© LaCuerda.net · aviso legal · privacidad · es · en · pt · contacto
DINAMICO