Acordes de Guitarra » 0-9 »La 25 » Le gusta así (Tab)

Le gusta así
La 25

Letras, Acordes y Tabs para Guitarra, Bajo y Ukulele

  • Intro: LA
    
    LA
    Todas esos vicios y todas esas modas
    que cambian tu personalidad
    RE
    Darás un paso atrás
                                 LA
    que importa si perdes formalidad
    MI
    Solo busca divertir
                                          LA
    hasta que tus piernas digan que no dan más
    
    ---
    
    Lo que tanto buscastes
    al paso que tu llevas llegara
    Solo ve para adelante
    que importa sin el mundo se derrumba atrás
    
  • e|-------------------------------------------
    B|-------------------------------------------
    G|-------------------------------------------
    D|-2---------4--2-----2-----2--4--5p4-----2--
    A|-0--3h4p0--0--0--3b-0-----0---------3b--0--
    E|-------------------------------------------
    
    Riff 2
    
    e|-------------------------------------------
    B|-------------------------------------------
    G|-2---------4--2-----2-----2--4--5p4-----2--
    D|-0--3h4p0--0--0--3b-0-----0---------3b--0--
    A|-------------------------------------------
    E|-------------------------------------------
    
    
    INTRO
    
    e|-------------------------------------------
    
  • +
    ¡Colabora con nosotros!
    Envíanos tu versión de esta canción

Letra de Le gusta así
Todas esos vicios y todas esas modas
que cambian tu personalidad
Darás un paso atrás
que importa si perdes formalidad
hasta que tus piernas digan que no dan más
Lo que tanto buscastes
al paso que tu llevas llegara
que importa sin el mundo se derrumba atrás
Me dijeron que te fuiste
ni se si algún día regresaras
Si buscas lo que te GusTa
sabes que algún día me encontraras
A ella le gusta así,
le gusta lo que mas me gusta a mí
Te veo caminando
te encuentro por las calles o en algún bar
Te veo y otra vez decís
algún día vos cambiaras
Yo te juro por vida
que nunca parare de rokear, de rokear y rokear
Ahahahahahhaa...
Y no olvides divertir asta qe tus piernas digan qe no dan mas




[Le gusta así chords][Le gusta así cifra]
© LaCuerda.net · aviso legal · privacidad · es · en · pt · contacto
DINAMICO