Acordes de Guitarra » 0-9 »La 25 » Chico Común (Tab)

Chico Común
La 25

Letras, Acordes y Tabs para Guitarra, Bajo y Ukulele

  • LA GUITARRA BASE)
    
                D5
    El es un chico común como solia haber
              A5
    En cualquier barrio de hoy
                 D5
    Ella es la chica bien que vagaba sola
             A5
    En aquella vieja estación
    
             G5                                         D5
    Y se cruzaron aquel dia de tarde y el silencio partio
              A5                          G5                  D5
    Pero quien iba a pensar que aquella tarde sus vidas cambió
    
    (EN ESTE VERSO COMIENZA A HACER TRIADAS DE LAS QUINTAS)
    
         D5 T1         T1
    Aca estoy, esto soy
    
  • 1° SOLO
    e|-----------|-------|------------|----------------|-------------|-----------|------------|
    B|-----------|----10-|------------|----10-10-7-----|-------------|-----------|-10----10---|
    G|-------7-9-|-9^----|-9^9-7---7--|-9^---------9-7-|---7-9-7---7-|-9-7---7-9^|----9^---9^-|
    D|---7-9-----|-------|--------9---|----------------|-9-------9---|-----9-----|------------|
    A|-9---------|-------|------------|----------------|-------------|-----------|------------|
    E|-----------|-------|------------|----------------|-------------|-----------|------------|
    
    e|---------|-------------|-12^-12^12-10--10--|-12^-10-----------|-----------------------|
    B|-10---10-|-------10-12-|--------------12---|------------------|---10------------------|
    G|----9^---|-7h9-11------|-------------------|--------11-9-11---|-9^---9^9-7------------|
    D|---------|-------------|-------------------|---------------12-|------------9-7--------|
    A|---------|-------------|-------------------|------------------|-
  •             D5
    El es un chico común como solia haber
              A5
    En cualquier barrio de hoy
                 D5
    Ella es la chica bien que vagaba sola
             A5
    En aquella vieja estación
    
             G5                                         D5
    Y se cruzaron aquel dia de tarde y el silencio partio
              A5                          G5                  D5
    Pero quien iba a pensar que aquella tarde sus vidas cambió
    
           D5
    Aca estoy, esto soy
           A5
    Se lo dijo sin ningún temor
            D5
    Estas calles son mías todas caminadas
    
  • CHICO COMÚN- LA 25
    
    Primer Solo
    e|-------------------------------------------------------------
    B|---------------10---------------10---------------------------
    G|------7-9--9b/-----9//-7---7-9b----9ba-7----7-9b-7---7-------
    D|-s7-9--------------------9----------------9--------9---------
    A|-------------------------------------------------------------
    E|-------------------------------------------------------------
    
    e|----------------------------------------------------12b/-12//-10
    B|--------------10----10----10-----10-------7---10-12-------------
    G|-9-7---7---9b----9b----9b----9b/----9//-9-----------------------
    D|-----9----------------------------------------------------------
    A|----------------------------------------------------------------
    E|----------------------------------------------------------------
    
    e|----10-12b-10------------------------------------------------
    B|-12--------------------------------10------------------------
    G|---------------12-10h11--------9b/----9//-7------
  •  Intro: el bajo toca 2 veces Re,uno en cada golpe despues
     de que suena el redoblante...
     cuando empieza a cantar,el bajo hace las mismas notas
     que la guitarra ritmica:
    
    g|-------------------------------------------------|
    d|-------------------------------------------------|
    a|--5(varias veces hasta que cambia)---------------|x2
    e|----------------------------------5(varias veces)|
    
    g|--------------------------------------------------------|
    d|--------------------------------------------------------|
    a|-----------------5(varias veces)----------------------5-|
    e|--3(varias veces)----------------5(varias)-3(varias)----|
    
    g|------------------|
    d|--12(varias veces)|
    a|------------------|
    e|------------------|
    
     *estos riff entran cuando dice: aca estoy,esto soy...
    
     R1:
    g|-----------------|  |---------------------------------|
    d|----------2-2-4-4|  |---------------------------------|
    a|--0-0-4-4--------|x2|----------------------4-4-5-5-7-7|
    e|-----------------|  |--5-5-3-3-2-2-3-3-5-5 ----
  • +
    ¡Colabora con nosotros!
    Envíanos tu versión de esta canción

Letra de Chico Común
El es un chico común como solia haber
En cualquier barrio de hoy
Ella es la chica bien que vagaba sola
En aquella vieja estación
Y se cruzaron aquel dia de tarde y el silencio partio
Pero quien iba a pensar que aquella tarde sus vidas cambió
(EN ESTE VERSO COMIENZA A HACER TRIADAS DE LAS QUINTAS)
Aca estoy, esto soy
Se lo dijo sin ningún temor
Estas calles son mías todas caminadas
Con el corazón
Y fue tomando valor en ese bar que le quedó de paso
Y sobrado de unos tragos confesó su despido final
Cuando te vayas detendré el reloj en el tiempo
Y como ofrenda llevaste ese pañuelo que enroscaba en mi cuello
Como recuerdo de vos comienzo el rock así, que dice 1,2,3 va...
Como olvidarla no, si su recuerdo es este rocanrol.
Aca estoy, y me voy
Dejando un suspiro en la estación
Perdiéndome en estas calles dijo
Nos vemos en la nueva canción
Y como olvidar, y que pensar, mientras se aleja ese vagón
Ella me dejó, sólo es la letra de esta nueva canción.
Cuando te vayas detendré el reloj en el tiempo
Y como ofrenda llevaste ese pañuelo que enroscaba en mi cuello
Como recuerdo de vos comienzo el rock así, que dice 1,2,3 va...
Como olvidarla no, si su recuerdo es este rocanrol.
Triadas:
Triada 1 Triada 2 Triada 3
RIFFS Primer Estribillo
riff 1
riff 2
riff 3
riff4
Riffs Segundo Estribillo
riff 5
riff6
riff 7
PD: NO LE BUSQUEN FALLAS PORQUE NO TIENE, LO SAQUE YO ;)
A ver si alguien en la pagina se juega y pone la segunda guitarra
de las transcripciones que manden. Siempre ponen lo mas fácil:
las notas.




[Chico Común chords][Chico Común cifra]
© LaCuerda.net · aviso legal · privacidad · es · en · pt · contacto