Acordes de Guitarra » 0-9 »La 25 » Con el rock en las venas (Tab)

Con el rock en las venas
La 25

Letras, Acordes y Tabs para Guitarra, Bajo y Ukulele

  • e|------------5--------5--------------------------------------------------|>
    B|-------5------8/5-------------------------------------------------------|>
    G|--5/6-------------------7---5-------------------------------------------|>
    D|-----------------------------------7---5--------------------------------|>
    A|--------------------------------------------2-2-4-2-2-2-4-2-2-2-4-2-2-2-|>
    E|--------------------------------------------0-0-0-0-0-0-0-0-0-0-0-0-0-0-|>
    
    
             A5                                                 E5
    Vos preferís estar tirado sin un mango en el bolsillo arrimarte donde calienta el sol
         A5                                        E5
    y cerras la puerta o apagas la radio y que te canten una canción de amor
                      D5                                          A5
    yo quiero estar tirado en el sillón de mi casa pensando en partir
                      E5                     D5               A5         D5 C5 A5
    si tengo que levantarme temprano a las ma√Īanas prefiero morir
    
    Este suelo que pisamos de escenarios de esta vida quien te har√° triunfar o fracasar
    y el camino es largo y no tenés salida decís que no da para más
    ella se fue ech√°ndote la culpa de todo lo que nunca sabes,
    
  • CON EL ROCK EN LAS VENAS-LA 25
    
    
      Intro
    e|-------5-------5------------------------------------------------
    B|-----5-5--5-7--5--7-5----------------------------------5-5-5----
    G|-5h6--------------7-5b---------------------------------5-5-5----
    D|------------------------7-5-----------------------------------7v
    A|-----------------------------2-2-4-2--2-2-4-2--2-2-4-2----------
    E|-----------------------------0-0-0-0--0-0-0-0--0-0-0-0----------
    
    
      Solo (2:02)
    
    e|-------5--8-5--------5--8-5--------5-5--7-5--8-5----
    B|-----5-5--8-5------5-5--8-5------5-5-5--7-5--8-5----
    G|-5h6-----------5h6-----------5h6--------------------
    D|----------------------------------------------------
    A|----------------------------------------------------
    E|----------------------------------------------------
    
    
    e|-5----5-7-5----------------------------------------------
    B|---7--------7-5--------8-----8-----8---------------------
    G|----------------7-5-7--7ba---7ba-5-7ba-5-----------------
    D|--------------------------
  • A5
    vos preferís estar tirado sin un mango en el bolsillo
    E5                             D5 D5 D5 A
    arrimarte donde calienta el sol
    A5
    y cerras la puerta o apagas la radio
          E5
    y q te canten una canción de amor
                      D5                                          A5 RIFF 1
    yo quiero estar tirado en el sillón de mi casa pensando en partir
                     E5                   D5                  A5  D5 D5 D5
    si tengo q levantarme temprano en las ma√Īanas prefiero morir
    
                                                                   RIFF 2
                                                            1)----------5...|
    este suelo q pisamos de escenario de esta vida          2)----7-9-7-5...|
    E5                            RIFF 2                    3)-7-9----------|
    que te ara triunfar o fracasar                          4)--------------|
    Y el camino es largo y no tenes salida                  5)--------------|
    Decís que no da para más                                6)--------------|
    
  • +
    ¬°Colabora con nosotros!
    Envíanos tu versión de esta canción

Letra de Con el rock en las venas
Vos preferís estar tirado sin un mango en el bolsillo arrimarte donde calienta el sol
y cerras la puerta o apagas la radio y que te canten una canción de amor
yo quiero estar tirado en el sillón de mi casa pensando en partir
si tengo que levantarme temprano a las ma√Īanas prefiero morir
Este suelo que pisamos de escenarios de esta vida quien te har√° triunfar o fracasar
y el camino es largo y no tenés salida decís que no da para más
ella se fue ech√°ndote la culpa de todo lo que nunca sabes,
decís que no te hace falta salís a buscarla pero no te hace bien.
Y a pesar de los consejos nos volvimos a caer
nos dejamos llevar por el rock en las venas
y escondido en la noche y aturdido de escuchar
esa voz que me dir√°: que mejor no podes estar.
Yo no se si es fiebre do hoy o vientos del ayer que me har√° volver
como el perro que olvido enterrado el hueso en su guarida
el quiso ser un rocker que no tiene rock y todo es mas sencillo sabes,
ser√° el rock y vos y yo los que no vamos a morir,
Esta esquina est√° brava y los pibes se agarran de los huevos para no perder.
Y llega el gorra de turno con su ropa prestada quien te har√° bailar m√°s y m√°s,
la yuta puta reprime por todos los lugares donde vos te movés
y tu casa queda demasiado lejos para volver.
Este suelo que pisamos de escenarios......
Y a pesar de los consejos nos volvimos a caer......
Yo no se si es fiebre do hoy o vientos del ayer que me har√°n volver
por lo que no podes tocar en un solo día
el quiso ser un rocker que no tiene rock y todo es mas sencillo sabes,
ser√° el rock y vos y yo los que no vamos a morir
ser√° el rock y vos y yo los que no vamos a morir.... x4
AGUANTE LA 25!!!!!!!!!!!!!
DEDICADO A SERGIO MEDINA QUE LE RE CABE LA 25 Y TODO EL ROCK STONE!!! JEJEJE
PUNTA ALTA
Aníbal#87___________




[Con el rock en las venas chords][Con el rock en las venas cifra]
© LaCuerda.net · aviso legal · privacidad · es · en · pt · contacto