Acordes de Guitarra » 0-9 »113 Vicios » Amargo (Tab)

Amargo
113 Vicios

Letras, Acordes y Tabs para Guitarra, Bajo y Ukulele

  •    DO  RE    MIm     DO   RE     MIm     DO   RE   MIm
    E|--------2------0----------2---------0------------2-----0---|
    B|----1----3------0------1---3---------0------1---3-------0--|
    G|-------2--2------0----------2---------0----0---2---------0-|
    D|--2--0-------2----2--2---0---0----2----2--2---0------2----2|
    A|-3----------2-------3------------2-------3----------2------|
    E|-----------0--------------------0------------------0-------|
    
       DO   SI7  MIm     DO   SI7  MIm      RE RE4 RE
    E|---------------0------------------0-----2--3--2-|
    B|----1----4------0------1----4------0----3--3--3-|
    G|-----0----2------0------0----2------0---2--2--2-|
    D|--2----4-----2----2--2----4-----2-----2-0--0--0-|
    A|-3----2-----2-------3----2-----2----------------|
    E|-----------0------------------0-----------------|
    
    DO     RE        MIm
    Este país de los hombres húmedos
    DO       RE    MIm
    O lo del ángel negro
    
  • +
    ¡Colabora con nosotros!
    Envíanos tu versión de esta canción

Letra de Amargo
Este país de los hombres húmedos
O lo del ángel negro
Y me contó una historia triste
Para que no me durmiera sin emocionarme
Para que no me durmiera sin emocionarme…
Pero... yo no creo nada ni en los besos de la muerte
Pero... yo no creo nada ni en los besos de la muerte
Amargo… amaaaargo… Amargo… amaaaargo… amar...go go…
La pasión a muerto
La encerraron dentro de un globo de látex
Mi generación fue vomitada
Haaacia la nadaaaa… haaacia la nadaaaaaaaa…
Pero... yo no creo nada ni en los besos de la muerte
Pero... yo no creo nada ni en los besos de la muerte
Amargo… amaaaargo… Amargo… amar...go go…
Pero... yo no creo nada ni en los besos de la muerte
Pero... yo no creo nada ni en los besos de la muerte
Amargo… amaaaargo… Amargo… amaaargo… amargo amar... go
(y termina




[Amargo chords][Amargo cifra]
© LaCuerda.net · aviso legal · privacidad · es · en · pt · contacto
DINAMICO