Acordes de Guitarra » Z »Zona Alterna » Vuelo (Tab)

Vuelo
Zona Alterna

Letras, Acordes y Tabs para Guitarra, Bajo y Ukulele

  •        //A - F
    
        A               F
    e|---------------|-----------------|
    B|----------5----|-----------1-----|
    G|------6-----6--|------2------2---|
    D|--------7------|--------3--------|
    A|----7----------|----3------------|
    E|--5------------|--1--------------|
    
        A               F
    e|---------------|--------1--------|
    B|----------5----|-----------------|
    G|------6-----6--|------2----------|
    D|--------7------|----3------------|
    A|----7----------|-----------------|
    E|--5------------|--1--------------|
    
    A        F
    Al inalar esa maldad
    
  • +
    ¡Colabora con nosotros!
    Envíanos tu versión de esta canción

Letra de Vuelo
Al inalar esa maldad
Parece que tu mundo
se esta transformando
En algo mejor
Se siente al fin
La libertad
De aquello que desdicha tu vida
Y te trae mal
Regresar de aquel godo vuelo
Todo vuelve a ser tan incierto
No hubo remedio
Para que refugiar y buscar tu sacio
En algo que no es duradero ni eterno
si tu cuerpo al final destruyéndose esta
y tu alma se arrastra al agujero
podes hallar eterna paz
porque el dio su vida ase tiempo en una cruz
se siente al fin la libertad
aquella que anhelava tu alma
y no tiene final
Para que refugiar y buscar tu sacio
En algo que no es duradero ni eterno
si tu cuerpo al final destruyéndose esta
y tu alma se arrastra al agujero
busca salida en algo de verdad
ese es Jesucristo el te limpiara oye y ye oye y ye
punteo: esta en base
Para que refugiar y buscar tu sacio
En algo que no es duradero ni eterno
si tu cuerpo al final destruyéndose esta
y tu alma se arrastra al agujero
final:

Video de Vuelo
[]




[Vuelo chords][Vuelo cifra]
© LaCuerda.net · aviso legal · privacidad · es · en · pt · contacto