Acordes de Guitarra » Z »Zona Alterna » Espera (Tab)
  • Tablatura
    Esus/D………         x x 2 2 3 0
    (A/D)………..        x x 3 2 3 0
    
    Intro:
    
      Dm                C
    e|------1-0------|-------0-------|
    B|-----3----3----|------1--1-----|
    G|----2------2---|-----2----2----|
    D|---0-----------|---------------|
    A|---------------|---3-----------|
    E|---------------|---------------|
       A#              A
    e|------1--------|-------0-------||
    B|-----3--3------|-----2---2-----||
    G|---3-----3-----|----2-----2----||
    D|---------------|---2-----------||
    A|--1------------|--0------------||
    E|---------------|---------------||
    
    
  • +
    ¡Colabora con nosotros!
    Envíanos tu versión de esta canción

Letra de Espera
Has llegado a la frontera y no puedes avanzar
Pues la muerte esta rondando y solo te queda esperar
Has vivido a tu manera y hoy no puedes sentir
Que aquello haya tenido algún motivo por vivir
Tantas noches de parranda de drogas y de alcohol
No han llenado ese vacío y solo quedan sin sabor
Tú piensas que has probado todo y que nada te convenció
Y hoy quitándote la vida hoy piensas esto termino
Espe….e…era que aun queda esperanza algo que no viste aun
Espe….e…era hay una luz que alumbrara tu caminar
INTERMEDIO:
Hubo alguien que ase tiempo dio su vida en una cruz
Para que en ese momento no haya muerte sino luz
Y de a tu vida un sentido un motivo por vivir
Y que borre las heridas que marcaron tu existir
Espe….e…era que aun queda esperanza algo que no viste aun
Espe….e…era hay una luz que alumbrara tu caminar
Llenando el vacío con gran contenido con paz celestial
que solo el da
Y que no dura tan solo un momento sino que es por toda la
eternidad
Punteo:
no mas que no la saque todavía pero esta en base:
Ya conoces el camino solo tienes que elegir
Si terminas con tu vida o si dejas de sufrir
Entregando a Jesucristo tu manera de actuar
Y dejando que hoy mismo te comience a cambiar
Estodo espero que les guste cualquier cosa a mi correo
fran_zhok@hotmail.com
Ahh saludos para rudi de la B.B.T. que no quería
prestarme su guitarra

Video de Espera
[]



© LaCuerda.net · aviso legal · privacidad · contacto
DINAMICO