Acordes de Guitarra » Z »Zombis » Groenlandia (Tab)

Groenlandia
Zombis

Letras, Acordes y Tabs para Guitarra, Bajo y Ukulele

  • DO-Am-FA-Am-G
    
    C                   Dm
    Todas las secuencia..as
    SIb
    han llegado a su conclusión
       Am                      G
    el tiempo no puede esperar.
     C                   Dm
    Atravesaré el mundo..o
    SIb
    y volando llegaré
       Am                  G
    hasta el espacio exterior
    CORO:
    C                           Am
    Y yo te buscaré en Groenlandia
               F
    en Perú en el Tibet
           Am                  G
    
  • DO-LAm-FA-LAm-SOL
    
    
    VERSO
    
    DO                   REm
    Todas las secuencia..as
                             FA
    han llegado a su conclusión
                             LAm SOL
    el tiempo no puede esperar
    DO                    REm
    Atravesaré el mundo..ooo
                    FA
    y volando llegaré
                           LAm SOL
    hasta el espacio exterior
    
    CORO
    
    
  •   B
    e-----------------------------
    B-----------------------------
    G-----------------------------
    D-------4-----------4---4-----
    A----4-6--6-4----4-6---6------
    E-7----------7--7-------------
      G#m
    e-----------------------------
    B-----------------------------
    G-------8-------------8-------
    D-6--8-9--9-8-6--6-8-9--9-8---
    A-----------------------------
    E-----------------------------
      E         G#m        F#
    e--------------------------------
    B--------------------------------
    G--------------------------------
    D[----4-6]x4---------------------
    A[-7-----]--6--6--6-6--4--4--4-4-
    
  • +
    ¡Colabora con nosotros!
    Envíanos tu versión de esta canción

Letra de Groenlandia
VERSO
Todas las secuencia..as
han llegado a su conclusión
el tiempo no puede esperar
Atravesaré el mundo..ooo
y volando llegaré
hasta el espacio exterior
Y yo te buscaré en Groenlandia
en Perú en el Tibet
en Japón en la isla de Pascua.
Y yo te buscaré en las selvas
de Borneo, en los crá-te-res
de Marte en los anillos de Saturno
VERSO
Cruzando amplios mare..es
escalando altas montañas
descendiendo los glaciares.
A través del desierto..ooo
las junglas y los bosque..es
quizá te encuentre alguna vez...
Y yo te buscaré en Groenlandia
en Perú en el Tibet
en Japón en la isla de Pascua.
Y yo te buscaré en las selvas
de Borneo, en los crá-te-res
de Marte en los anillos de Saturno

Video de Groenlandia
[]




[Groenlandia chords][Groenlandia cifra]
© LaCuerda.net · aviso legal · privacidad · es · en · pt · contacto