Acordes de Guitarra » Z »Zion » Zun Da Da (Tab)

Zun Da Da
Zion

  • Letra y Acordes
    Intro: LAm - DO - SOL - MIm
    
    LAm                     DO
    tu encuentro no es algo casual
                           SOL
    para mi es un poco ilógico
               MIm
    he vivido un acto histórico,
    LAm                      DO
    tu me has llevado a mi a viajar
                              SOL
    eres mi amor platónico, viaje hasta aki
              MIm
    por un precio módico
    
    LAm                      DO
    definitivamente tus labios tienen
          SOL
    algo magnético
                  MIm
    
  • Tablatura
    B|----------------13-12-10-------12-10-----13v------12--10--8----10v-
    G|--------------------------8-9--------------------------------------
    D|-------------------------------------------------------------------
    A|-------------------------------------------------------------------
    E|-------------------------------------------------------------------
    
    
    e|--------------20v--------19-20--17v-------15---13-12---------------
    B|12v---15--17-------17---------------------------------13p12--9v----
    G|-------------------------------------------------------------------
    D|-------------------------------------------------------------------
    A|-------------------------------------------------------------------
    E|-------------------------------------------------------------------
    
    
    
    post intro
         LAm             FA               SOL              MIm
    e|---------------------------------------------------------------
    B|----------------------1----------------------------------------
    
  • +
    ¡Colabora con nosotros!
    Envíanos tu versión de esta canción

Letra de Zun Da Da
tu encuentro no es algo casual
para mi es un poco ilógico
he vivido un acto histórico,
tu me has llevado a mi a viajar
eres mi amor platónico, viaje hasta aki
por un precio módico
definitivamente tus labios tienen
algo magnético
debo tomarme algo energético,
no quiero q se caiga este momento mágico,
x eso me pongo romántico.
zundada, zundada
zundada zun zundada
zundada, zundada
zundada zun zundada
te mirare
x q yo
mirándote a la cara
me doy cuenta q me muero
x tocarte
como yo
te soñé en cada
noche q me desvelaba, mami,
sin tu calor, pero no, tire mis sueños en el suelo
y aunque casi muero
te encontré (te encontré)
te encontré
te besare
hasta sentirme tuyo
e inventare un mundo para los dos
te abrazare y sentirás mi calor
haremos sexo con ropa
esto será entre tu y yo
te besare … [Bis]
bailemos tu y yo
zundada, zundada
zundada zun zundada
zundada, zundada
zundada zun zundada
tu encuentro no es algo casual
para mi es un poco ilógico
he vivido un acto histórico,
tu me as llevado a mi a viajar
eres mi amor platónico, viaje asta aki
por un precio módico
definitivamente tus labios tienen
algo magnético
debo tomarme algo energético,
no quiero q se caiga este momento mágico,
x eso me pongo romántico.



© LaCuerda.net · aviso legal · privacidad · contacto