Acordes de Guitarra » Y »Yndio » El (Tab)

El
Yndio

Letras, Acordes y Tabs para Guitarra, Bajo y Ukulele

  • C                Am
    EL QUE SUEÑA CONTIGO
    Dm                 G7
    SIEMPRE PLATICA DE TI
    C                    Am
    EL QUE TE OFRECE SU NIDO
    Dm                G7
    LO CONSTRUYO PARA TI
    C                 Am
    SI LO QUIERES TAMBIEN, HAZLO FELIZ
    Dm                 G7
    DILE, LA VERDAD, YA NO LO HAGAS SUFRIR
    C                  Am
    EL QUE SABES TE ADORA 
    Dm             G7
    Y QUIERE SER TUYO
    C                   Am 
    EL QUE SIEMPRE TE AÑORA
    Dm              G7
    Y SUFRE TU ORGULLO 
    
  • D  Bm  G  A
    
    
    Introducción
    
         D          Bm        G        A
    eI---8-8-7-8-7-5-5-3-5-3-2-2-0-2-3-5---R--|
    BI-------------------------------------E--|
    GI-------------------------------------P--|   x 2v
    DI-------------------------------------I--|
    AI-------------------------------------T--|
    EI-------------------------------------E--|
    
    
    D               Bm
    EL QUE SUEÑA CONTIGO
      G                A
    SIEMPRE PLATICA DE TI
    D                   Bm
    EL QUE TE OFRECE SU NIDO
    
  •    C              Am       F         G
    e|----------------------12-15--12----12--------|
    B|-13--12-13-12-12----------------15-----------|
    G|-----------------14--------------------------|
    D|---------------------------------------------|
    A|---------------------------------------------|
    E|---------------------------------------------|
    
       C              Am       F          G
    e|----------------------12-15--12----12--------|
    B|-13--12-13-12-12----------------15-----------|
    G|-----------------14--------------------------|
    D|---------------------------------------------|
    A|---------------------------------------------|
    E|---------------------------------------------|
    
    Empieza con este bajeo:
             C
    D|-------------|
    A|---0-2-3-----|
    
  •             INTRO  X2 VECES
    G|----------------|------------------|
    D|----------------|------------------|
    A|-5--4-5-4-2--2-2|------------------|
    E|----------------|-3--3-3-2-3-5--5-5|
    
          LUEGO VA ESTA PARTE
    G|------|--------|
    D|------|--------|
    A|------|-0-2-4-5|
    E|-5-5-5|--------|
    
         AQUI INICIA LA LETRA
    G|----------------|------------------|
    D|----------------|------------------|
    A|-5--4-5-4-2--2-2|------------------|
    E|----------------|-3--3-3-2-3-5--5-5|
    
    G|----------------|------------------|
    D|----------------|------------------|
    A|-5--4-5-4-2--2-2|------------------|
    E|----------------|-3--3-3-2-3-5--5-5|
    
    G|----------------|------------------|
    D|----------------|------------------|
    A|---5--5-5-2--2-2|------------------|
    E|----------------|-3--3-3-2-3-5--5-5|
    
    G|----------------|------------------|
    D|----------------|------------------|
    A|---5--5-5-2--2-2|------------------|
    E|----------------|-3--3-3-2-3-5--5-5|
    
          ESTO SE REPITE TODA LA CANCION
    G|----------------|--
  • +
    ¡Colabora con nosotros!
    Envíanos tu versión de esta canción

Letra de El
EL QUE SUEÑA CONTIGO
SIEMPRE PLATICA DE TI
EL QUE TE OFRECE SU NIDO
LO CONSTRUYO PARA TI
SI LO QUIERES TAMBIEN, HAZLO FELIZ
DILE, LA VERDAD, YA NO LO HAGAS SUFRIR
EL QUE SABES TE ADORA
Y QUIERE SER TUYO
EL QUE SIEMPRE TE AÑORA
Y SUFRE TU ORGULLO
VIVIR SIN TU CARIÑO ES MEJOR MORIR
YO LO SE, PORQUE, EL QUE TE QUIERE
EL... SOY... YOOO
SE REPITE LA LETRA




[El chords][El cifra]
© LaCuerda.net · aviso legal · privacidad · es · en · pt · contacto