Acordes de Guitarra » W »Walter Giardino » Los amigos del campeón (Tab)

Los amigos del campeón
Walter Giardino

Letras, Acordes y Tabs para Guitarra, Bajo y Ukulele

  • e|-------
    B|-------
    G|-------
    D|-11\4--
    A|-11\4--
    E|-------
    
    e|----------------------------------------      |--14b(16)r--
    B|----------------------------------------      |------------
    G|-------------------------------4--2-----      |------------
    D|-6-6-6--5--4--2----------------4--2--2--      |------------
    A|-4-4-4--3--2--0--4--4-2-2-4-2--2--0--2--      |------------
    E|-----------------2--2-0-0-2-0--------0--      |------------
    
    e|----------------------------------------      |------------
    B|----------------------------------------      |------------
    G|-------------------------------4--2-----      |------------
    D|-6-6-6--5--4--2----------------4--2--4--      |-4-\-2-/-4\\
    A|-4-4-4--3--2--0--4--4-2-2-4-2--2--0--4--      |------------
    E|-----------------2--2-0-0-2-0--------2--      |------------
    
  • +
    ¡Colabora con nosotros!
    Envíanos tu versión de esta canción






[Los amigos del campeón chords][Los amigos del campeón cifra]
© LaCuerda.net · aviso legal · privacidad · es · en · pt · contacto
DINAMICO