Acordes de Guitarra » V »Los Visconti » Que hacemos con mamá (Tab)

Que hacemos con mamá
Los Visconti

Letras, Acordes y Tabs para Guitarra, Bajo y Ukulele

  • Em          B7             Em             B7
    
    E -----------5----------7-5-3----------5-7-8--------
    B -------4-5----------------------------------------
    G -4-3-4-----------4-3-4---------4-3-4---------4-3-4
    D---------------------------------------------------
    A---------------------------------------------------
    E---------------------------------------------------
    
         Em               Am
    
    E-10-8-7---7-8-10-10-10-10---8-8-
    B--------------------------------
    G--------------------------------
    D--------------------------------
    A--------------------------------
    E--------------------------------
    
                Em               B7
    
    
  • +
    ¡Colabora con nosotros!
    Envíanos tu versión de esta canción

Letra de Que hacemos con mamá
la intro se repite en el intermedio del tema
Me extraña esa pregunta, la que me haces hermano,
Me extraña y me agoniza no puedo comprender,
Que hoy vengas a decirme que hacemos con mi madre.
Mi madre que es la tuya que nos ha dado el ser.
Si es ese el pensamiento que tienes en la mente,
Mejor no digas nada cállate por favor,
Que mientras yo este vivo tenelo bien presente,
Ella estará conmigo, conmigo con mi amor.
Tal vez estés pensando al verla tan viejita
Enferma con sus años, sin fuerza para andar
Que ella es una molestia y eso no justifica
Que hoy quieras proponerme llevarla a otro lugar.
Ahora más necesita hermano de nosotros
Brindemosle cariño, ternura y no piedad
Y da gracias al Cielo a Dios que aun la tenemos
No vuelvas a decirme
Que hacemos con mamá.




[Que hacemos con mamá chords][Que hacemos con mamá cifra]
© LaCuerda.net · aviso legal · privacidad · es · en · pt · contacto
DINAMICO