Acordes de Guitarra » V »Los Visconti » Odiame (Tab)

Odiame
Los Visconti

Letras, Acordes y Tabs para Guitarra, Bajo y Ukulele

  •  Am          E7             Am
    ódiame por piedad yo te lo pido
      Am         A7            Dm
    odiame sin medida ni clemencia
     Dm          G7           C   Am G F
    odio quiero mas que indiferencia
               Am            E7           Am
    por que el rencor Hiere menos que el olvido
    
    (CORO:)
               G7                C
    si tu me odias quedare yo convencido
                G7                  C      Am G F
    de que me amaste mujer con insistencia
               E7                          Am
    pero ten presente deacuerdo a la experiencia
     Dm             C    E7    Am
    que tan solo se odia lo querido
              E7                         Am
    pero ten presente deacuerdo a la experiencia
    
  •  LA           MI7        LA     5ta.  5ta.  6ta.
    ódiame por piedad yo te lo pido 3     0     0
    
    
     FA         SOL7         DO     5ta.  5ta.  6ta.
    odiame sin medida ni clemencia  3     0     0
    
    
     FA          SOL7         DO     6ta.  6ta.  6ta.
    odio quiero mas que indiferencia 3     2     1
    
    
    MI7     Mi7(2)                LA             6ta.   6ta.   6ta.
    por que el rencor quiere menos que el olvido 0      1      2
    
    
    
    
    
    
    
  • e-7-7-7-7-7--10-7-7-7-10-7-7-10-7-7-7-10-7-7---8--8-8-8-11-8-8-11-8-8-8-11-8-8-
    B-8-8-8-8-8---8-8-8-8--8-8-8--8-8-8-8-8--8-8---9--9-9-9-9--9-9-9--9-9-9-9--9-9-
    G-----------------------------------------------------------------------------
    D-----------------------------------------------------------------------------
    A-----------------------------------------------------------------------------
    E-----------------------------------------------------------------------------
    
    e-7--7-7-7-10--7-7-10--7-7-7-10--7-7-8------------------------------------
    B-8--8-8-8-8---8-8-8---8-8-8-8---8-8-9------------------------------------
    G-------------------------------------------------------------------------
    D-------------------------------------------------------------------------
    A-------------------------------------------------------------------------
    E------------------------------------------------------------------------
    
    
    e-11p8---8--11--8-4--3-4--3-4-4--3-4--3-4--6--8--3-3-3-----------------
    B------9----9---9-6--3-6--3-6-6--3-6--3-6--8--9--4-4-4-----------------
    G----------------------------------------------------------------------
    D----------------------------------------------------------------------
    A----------------------------------------------------------------------
    
  • +
    ¡Colabora con nosotros!
    Envíanos tu versión de esta canción

Letra de Odiame
ódiame por piedad yo te lo pido
odiame sin medida ni clemencia
odio quiero mas que indiferencia
por que el rencor Hiere menos que el olvido
si tu me odias quedare yo convencido
de que me amaste mujer con insistencia
pero ten presente deacuerdo a la experiencia
que tan solo se odia lo querido
pero ten presente deacuerdo a la experiencia
que tan solo se odia lo querido
que vale mas yo humilde y tu orgullosa
o vale mas tuy devil hermosura
piensa que en el fondo de la fosa
llevaremos la misma vestidura
ESPERO QUE LES SIRBA DE ALGO, ME PARESE QUE ESTA MEJOR QUE LA OTRA
DUDAS ALEXLACOSKI@HOTMAIL.COM




[Odiame chords][Odiame cifra]
© LaCuerda.net · aviso legal · privacidad · es · en · pt · contacto