Acordes de Guitarra » V »Violeta Parra » Gracias a la vida (Tab)

Gracias a la vida
Violeta Parra

Letras, Acordes y Tabs para Guitarra, Bajo y Ukulele

  •           F#7                    Bm
    Gracias  A LA vida, que me ha dado tanto.
                  A7                    D  
    Me dió dos luceros, que cuando los abro
                 D7                   Bm
    Perfecto distingo, lo negro del blanco
                  F#7                  Bm
    Y en el alto cielo, su fondo estrellado
                  F#7                    Bm
    Y en las multitudes al hombre que yo amo..
    
                 F#7                   Bm
    Gracias a la vida, que me ha dado tanto
                    A7              D
    Me ha dado el sonido y el abecedario
                  D7                     Bm
    Con él las palabras que pienso y declaro 
                     F#7             Bm
    Madre, amigo, hermano y luz alumbrado 
                F#7                 Bm
    
  •     MIdim  SOLdim  SIm9  SIm6  SIdim  LA#dim  DO#m7(b5)
    1/----3-------6------9-----7-----10------9-------------
    2/----2-------5------7-----9-----9-------8-------5-----
    3/----3-------6------7-----7-----10------9-------4-----
    4/----2-------5------7-----7-----9-------8-------5-----
    5/-------------------9-----9---------------------4-----
    6/-------------------7-----7---------------------------
    !Donde marco*Do#m... es el Do#m7(b5)
    
    Intro.- MIdim,SOLdim,SIm9,SIm6,SIdim,LA#dim,SIm9
    
                     *Do#m7(b5)  FA#7                 SIm
        Gracias A LA vida             que me ha dado tanto
                     MIm  LA7               RE
        me dió dos luceros   que cuando los abro
                    LAm7     RE7       SOL
        perfecto distingo lo negro del blanco
                    *Do#m...  FA#7       SIm
        y en el alto cielo su fondo estrellado
                      *Do#m...    FA#7       SIm  LA,SOL,FA#7,SIm
    
  • LAm           MI7                 LAm
    Gracias a la vida que me ha dado tanto
                SOL7                   DO
    Me dio dos luceros que cuando los abro
                DO7                  FA
    Perfecto distingo lo negro del blanco
                  MI7                LAm
    Y en el alto cielo su fondo estrellado
                  MI7                LAm
    Y en las multitudes al hombre que yo amo.
    
    Gracias a la vida que me ha dado tanto
    Me ha dado el oído que en todo su ancho
    Graba noche y día grillos y canarios
    Martillos, turbinas, ladrillos, chubascos
    Y la voz tan tierna de mi bien amado.
    
    Gracias a la vida que me ha dado tanto
    Me ha dado la marcha de mis pies cansados
    Con ellos anduve ciudades y charcos
    
  • Am      E                          Am
    Gracias a la vida que me ha dado tanto
                   G                      C
    Me dio dos luceros, que cuando los abro
                   C7                   F
    Perfecto distingo lo negro del blanco
                   E                   Am
    Y en el alto cielo su fondo estrellado
                   Em                  Am
    Y en las multitudes el hombre que yo amo
    
    
    Am      E                          Am
    Gracias a la vida que me ha dado tanto
                   G                      C
    Me ha dado el oído que en todo su ancho
                   C7                   F
    Graba noche y día, grillos y canarios
                   E                   Am
    Martillos, turbinas, ladridos, chubascos
    
  • e|--0000--1-----1------------4---5-7-8--7-----5-----5--5--7--8--10--8---------|
    B|----------0-----0-------0--3--------------5---5------------------------6----|
    G|------------2-----2-----1--4------------5-------5--------------------7------|
    D|--------0---------------0--2----------0--------------7--6--5--8---5---------|
    A|----------------------------------------------------------------------------|
    E|---------------------0------------------------------------------------------|
    
    
    e|----8-----------7-----------------0------------------0-------0--------------|
    B|------6-----5-------5-----------0---0--------------0---0-------0------------|
    G|--7-----------7---7---7-------5-------5----------5-------5-------5----------|
    D|----------6-----------------7-----------7------7-----------7-------7--------|
    A|--------------------------5---------------0--0------------------------------|
    E|--------0-------------------------------------------------------------------|
    
    
     ESTROFA
                                                      *
    e|-0000--1--------------------0----0--------------------|---0-0-0---0---------|
    B|-------3---0-------3-3-3-1------2-2------1-1-1-1------|---0-----------1-----|
    
  • +
    ¡Colabora con nosotros!
    Envíanos tu versión de esta canción
  • Tutorial
    HD
    GRACIAS A LA VIDA guitarra TUTORIAL como tocar
    6:47

Letra de Gracias a la vida
Me dió dos luceros, que cuando los abro
Perfecto distingo, lo negro del blanco
Y en el alto cielo, su fondo estrellado
Y en las multitudes al hombre que yo amo..
Gracias a la vida, que me ha dado tanto
Me ha dado el sonido y el abecedario
Con él las palabras que pienso y declaro
Madre, amigo, hermano y luz alumbrado
La ruta del alma delque estoy amando.
Gracias a la vida que me ha dado tanto
Me ha dado el oído que en todo su ancho
Graba noche y día grillos y canarios
Martillos, turbinas, ladridos chubascos
Y la voz tan tierna de mi bien amado.
Gracias a la vida, que me ha dado tanto
Me dió el corazón, que agita su mano
Cuando miro el fruto, del cerebro humano
Cuando miro al bueno tan lejos del malo
Cuando miro al fondo de tus ojos claros.
Gracias a la vida que me ha dado tanto
Me ha dado la marcha de mis pies cansados
con ellos anduve, ciudades y charcos
playas y desiertos, montañas y llanos
Y la casa tuya, tu calle y tu patio.
Gracias a la vida que me ha dado tanto
Me ha dado la risa y me ha dado el llanto
Así yo distingo, dicha de quebranto
Los dos materiales que forman mi canto.
Y el canto de ustedes que es mi propio canto.




[Gracias a la vida chords][Gracias a la vida cifra]
© LaCuerda.net · aviso legal · privacidad · es · en · pt · contacto