Acordes de Guitarra » V »Vilma Palma e Vampiros » Fernet con Coca (Tab)

Fernet con Coca
Vilma Palma e Vampiros

Letras, Acordes y Tabs para Guitarra, Bajo y Ukulele

  • INTRO: D (VARIAS)
    
    1)
    D
    QUE PASA MI QUERIDA QUE ESTOY SIEMPRE 
    G
    COMO EN OTRA 
          D 
    DE REPENTE CASI NADA ME INTERESA 
               G
    HAY MUCHO HUMO TAN DENSO 
           C    G
    EN MI PANTALON 
         C   D
    SACUDIMELO
         C     G
    QUE PASA AMOR
    
    1)
    QUE PASA 
    
  • INTRO: D Bm C G (4 veces)
    
    1)
    D           Bm
     Que te pasa mi querida 
    C                  G
    que estoy siempre como en otra
    D          Bm                 C
     de repente casi nada me interesa
         G          D     Bm
    hay mucho humo tan denso 
           C    G
    en mi pantalon
         D    Bm
    Sacudimelo
         C     G
    que pasa amor
    
    
    Que te pasa si te busco
    
  • bueno esta cancion en tablatura es
    muy facil , yo utiliza un tipo de escalas
    mas facil , cualquier duda escribanme
    
    comenzamos!!!!!
    
    introduccion (bajo en guitarra , muy facil)
     
    1--------------------------
    2-----------------------
    3--------------------------
    4----------------0--------
    5-------0--3-3-3------------
    6----3----1----------------
    
    QUE PASA MI QUERIDA.....
    6-------------------------------------------
    5-------------------------------------------
    4--------------------------------------------
    3--------------------------------------------
    2------------3----     3--0--3--3--3--0-3-0--3
    1---2---2--0----2-2--0------------------------
    
    DE REPENTE.........
    6------------------------------------------
    5-------------------------------------------
    4-------------------------------------------
    3-------------------------------------------
    2-------------3--------3--0--3--3--3-0-3-0--3-
    1--2----2---0----2-2--0----------------------
    
    HAY MUCHO HUMO .......
    6----
  • +
    ¡Colabora con nosotros!
    Envíanos tu versión de esta canción

Letra de Fernet con Coca
1)
QUE PASA MI QUERIDA QUE ESTOY SIEMPRE
COMO EN OTRA
DE REPENTE CASI NADA ME INTERESA
HAY MUCHO HUMO TAN DENSO
EN MI PANTALON
SACUDIMELO
QUE PASA AMOR
1)
QUE PASA
SI TE BUSCO TE ENOJAS
PORQUE SOLO TE BUSCO
SI ME QUEDO TE CALIENTA
QUE SIEMPRE ME QUEDE
QUIETO COMO MUERTO
ESTA INDECISION
ME VA A REVENTAR
QUE PASA AMOR
SI VOS NO SOS NORMAL
SABES TAMPOCO YO
PORQUE AL PARECER
SOY MEDIO RARO
2)
NO QUIERO TERMINAR EN UNA CELDA
SIN MI FERNET CON COCA COCA COLA
3)
QUE PASA, QUE PASA
QUE NO HAY MAS FERNET CON COCA
(REPETIR VARIAS VECES)
1)
QUE ME PASA MI QUERIDA
DESPIERTO SIEMPRE EN CASA DE OTRA
Y NO ES JUSTO QUE ME MATES SIN CLEMENCIA
NO SOS TAN MALA AUN AMOR
ESTAS BORRACHO PERDONAMELO
QUE PASA AMOR
4)
SI YO NO SOY NORMAL
SABES TAMPOCO VOS
PORQUE AL PARECER
SOS MEDIO RARA
2)
NO QUIERO TERMINAR EN UNA CELDA
SIN MI FERNET CON COCA COCA COLA
3)
QUE PASA, QUE PASA
QUE NO HAY MAS FERNET CON COCA
4)
SI YO NO SOY NORMAL
SABES TAMPOCO VOS
PORQUE AL PARECER
SOS MEDIO RARA
2)
NO QUIERO TERMINAR EN UNA CELDA
SIN MI FERNET CON COCA COCA COLA
3)
QUE PASA, QUE PASA
QUE NO HAY MAS FERNET CON COCA
3)
QUE PASA, QUE PASA
QUE NO HAY MAS FERNET CON COCA




[Fernet con Coca chords][Fernet con Coca cifra]
© LaCuerda.net · aviso legal · privacidad · es · en · pt · contacto