Acordes de Guitarra » V »Vilma Palma e Vampiros » Un camino hasta vos (Tab)

Un camino hasta vos
Vilma Palma e Vampiros

Letras, Acordes y Tabs para Guitarra, Bajo y Ukulele

  • Intro : [D A   D A  F#m7  E] x 4
    
    A
      Desperte una mañana
          F#m            E
    pensando como era tu cara
    A                           F#m           E
      Sintiendo el calor de tus manos de algodón
    
    A                   A
      Te veo en las ventanas y en el mar 
                 C#m              F#m
    si yo fuera luz vos seria el sol
               Bm              C#m
    te perseguiré, te transpirare
              D              E
    te refugiare con mi canción
    
    Estribillo :
                   A                     Bm
    
  • Aquí les envió el intro, luego el intro con la variante y el solo
    
       p - Pull off
       h - Hammer on
       s - Slide
       v – Vibrato
       b – Bend
      () – Armónico Artificial
    
    00:19
    
    ---------------------------------------------------------------------
    ---------------------------------------------------------------------
    --------9-6---------9-6-----6h7-6-6----------------------6-6-5s6---9-
    --7-7s9------7-7-7s-----------------9-9-7-9-9b-9-9v------------------
    ---------------------------------------------------------------------
    ---------------------------------------------------------------------
    
    
    ---------------------------------------------------------------------
    ---------10-------10----10s14-17-14-14-14-14v------------------------
    --6-9-11----11-------11----------------------------------------------
    ---------------------------------------------------------------------
    ---------------------------------------------------------------------
    -----------------------------------------------
  • +
    ¡Colabora con nosotros!
    Envíanos tu versión de esta canción

Letra de Un camino hasta vos
Desperte una mañana
pensando como era tu cara
Sintiendo el calor de tus manos de algodón
Te veo en las ventanas y en el mar
si yo fuera luz vos seria el sol
te perseguiré, te transpirare
te refugiare con mi canción
Estribillo :
Por que yo necesito un camino hasta vos
Por que yo necesito verte de nuevo
Para asi saber si el cielo es el fin
No te puedo hallar tan lejos de casa
Te fuiste una mañana
Dejando tus sueños en mi almohada
Prestame tu mirada
Tengo ojos que no pueden ver
Y se pasan las noches sin tu amor
Ahogando toda mi respiración
Para no llorar, para no caer
Me revolcare hasta flotar
Estribillo
Y ya no queda nada solo vos
Que me derrita como nieve al sol
Te despertare, te resucitare
Para cantar otra canción
Estribillo
Acordes :
X : Singnifica no tocar.
Rio Cuarto - CBA - Argentina
11-10-1995




[Un camino hasta vos chords][Un camino hasta vos cifra]
© LaCuerda.net · aviso legal · privacidad · es · en · pt · contacto