Acordes de Guitarra » V »Victor Manuel (Perú) » Que me importa a mí (Tab)

Que me importa a mí
Victor Manuel (Perú)

Letras, Acordes y Tabs para Guitarra, Bajo y Ukulele

  •     D                                  A
    E|----------------------------------------------------------------|
    B|----------------------------------------------------------------|
    G|--9oh11--11--11--11--9/7--7--9/11----9-9-9----------------------|
    D|-------------------------------------------11-11-9/7--7--9/11---|   2
    A|----------------------------------------------------------------|
    E|----------------------------------------------------------------|
    
         A                                                                |
    E|-----------------------------------12---------------------------|   |
    B|---------------10--12--12/14--14-14---14-14--12/10----10--------|   |
    G|------11-11-11-------------------------------------11-----------|   |
    D|---11----------------------------------------------------11-----|   |
    A|----------------------------------------------------------------|   |
    E|----------------------------------------------------------------|   |
                                                                          | 2
                                                         F#m              |
    E|-----------------------------------12---------------------------|   |
    B|---------------10--12--12/14--14-14---14-14--12/10----10--------|   |
    G|------11-11-11-------------------------------------11----11-----|   |
    
  • +
    ¡Colabora con nosotros!
    Envíanos tu versión de esta canción

Letra de Que me importa a mí
| 2
Me da lo mismo que me quieras o me odies|
de mi parte nuestro amor se termino |
Me da lo mismo que me quieras o me odies|
de mi parte nuestro amor se termino |
rif 1 :
riff 2 :
riff 3 :
riff 4 :
Porque tu me dejastes
no creas que estoy llorando
Tengo otros amores que a mi me estan esperando
Porque tu me dejastes
no creas que estoy llorando
Tengo otros amores que a mi me estan esperando
riff 5:
Ya no me busques
Ya no me llames
Lo nuestro ya se acabo
todo por tu culpa ya no me pidas
que te perdone
Mi corazon
Esta herido
Ya no me pidas
que te perdone
Mi corazon
Esta herido
|
|
|
Para que sufrir |
para que llorar |
mejor que se valla | 2 veces
otra ya vendra otra llegara |
sera bienvenida |




[Que me importa a mí chords][Que me importa a mí cifra]
© LaCuerda.net · aviso legal · privacidad · es · en · pt · contacto
DINAMICO