Acordes de Guitarra » V »Victor Manuel » Sólo pienso en tí (Tab)

Sólo pienso en tí
Victor Manuel

Letras, Acordes y Tabs para Guitarra, Bajo y Ukulele

  •     Em                           Em              D  G    C    D    G
    e --------0------------------------0--------0-----2----3----0----2--3--|
    B ------0--------------------------0------0-------3----0--3----3----3--|
    G ----0----------------------------0----0-------2----0--------------0--|
    D --2------------------------------2--2-------0----------------0-------|
    A ----------2-h-3-p-2-h-3-p-2-h-3-------------------------3------------|
    E ---------------------------------------------------3--------------3--|
    
    
    
    G             D      Cmaj7    D           Em   C   D
    Ella fue a nacer en una fría sala de hospital
    G             D       C            A7             D    
    cuando vio la luz su frente se quebró como el cristal
    Am                D          G             Cmaj7          A7   
    porque entre los dedos a su padre como un pez se le escurrió
    G                 D           Cmaj7  D               G   C  D
    hace un mes cumplió los veintiseis, sólo pienso en ti.
                  
    
    
  •   Em  C  D  G  C  D  G
    
       G             D     C         D           Em    C  D  G
       Ella fue a nacer en una fr¡a sala de hospital;
       G              D      Am           A7              D
       cuando vi¢ la luz su frente se quebr¢ como un cristal
       Am                D          G              C               A7
       porque entre los dedos a su padre, como un pez, se le escurri¢.
       G                 D            C       D              G   C  D  G
       Hace un mes cumpli¢ los veintis‚is... s¢lo piendo en ti.
    
    
    ESTRIBILLO:
       G     D             G
       Hey, s¢lo pienso en ti;
       Am            D          G     D       Em   D    C
       juntos de la mano se les ve por el jard¡....¡....¡n;
       Am              D             G           Em
       no puede haber nadie en este mundo tan feliz,
       C           D       G   C  D  Em    C  D  G
    
  • SOL            RE
    ella fue a nacer
    DO            RE            MIm DO RE
    en una fría sala de hospital
    SOL            RE
    cuando vio la luz
          DO      LAm            RE
    su frente se quebró como el cristal
    DO                  RE      SOL
    porque entre sus dedos a su padre
          DO            LAm
    como un pez se le escurrió
    SOL            RE            DO
    hace un mes cumplió los ventiseis
    
    RE            SOL DO RE
    solo pienso en ti
    SOL      RE            SOL
    ei,       solo pienso en ti
    DO            RE            SOL            DO RE DO
    
  •     MIm7  MIm7 DO7  RE7   LAm7 SI7/4  SOL7   MIm7b6  SOL11
    MI---0-----0----0----2-----0----2------2------0-------3
    SI --0-----0----0----1-----1----5------3------1-------0
    SOL--0-----0----0----2-----0----2------4------0-------0
    RE---1-----0----2----0-----2--- 4------5------0-------0
    LA --2-----0----3----0-----0----2------X------2-------2
    MI --0-----0----0----0-----0----2------X------0-------2
    
    INTRO:   MIm  MIm7  MIm7 DO7  LAm7 SI7/4  DO7   RE7
    
    
        SOL            RE     DO      RE7          MIm   DO  RE7
    VOZ: Ella fue a nacer en una fría sala de hospital
         SOL            RE       DO           LA7           RE7
         cuando vio la luz   su frente se quebró como el cristal
    LAm7              RE7         SOL            DO       LA7
    porque entre los dedos a su padre como un pez se le escurrió
         SOL             RE7            SI4
         hace un mes cumplió los veintiseis,
         SI7           DO           RE7         SOL    DO  RE7
    
  • Es un trozo larguillo...con el guitar pro lo tengo + currado...
    (januto@hotmail.com)
    
    guitarra 1
    
    
    
    
    E||-----------------0----|--0----------------|----------------------|
    B||------------0---------|-------------------|-----------------0----|
    G||-------0--------------|-------------------|-------0----0---------|
    D||--2-------------------|--2----------------|--2-------------------|
    A||----------------------|-------------------|----------------------|
    E||----------------------|-------------------|----------------------|
    
    
    
    --0----------------|------------2--------|------------3---------|
    -------------------|------------3--------|------------3---------|
    -------------------|-------2-------------|-------0---------0----|
    -------------------|--0------------------|----------------------|
    -------------------|---------------------|----------------------|
    -------------------|---------------------|--3-------------------|
    
    
    
    --0---------2--------|------------3---------|------
  • +
    ¡Colabora con nosotros!
    Envíanos tu versión de esta canción

Letra de Sólo pienso en tí
ella fue a nacer
en una fría sala de hospital
cuando vio la luz
su frente se quebró como el cristal
porque entre sus dedos a su padre
como un pez se le escurrió
hace un mes cumplió los ventiseis
ei, solo pienso en ti
juntos de la mano, se les ve por el jardín
no puede haber nadie en este mundo tan feliz
Él nació de pie
le fueron a parir entre algodón
su padre penso
que aquello era un castigo del señor
le busco un lugar para olvidarlo
y siendo niño le interno
pronto cumplirá los treinta y tres
(estribillo)
en el comedor
les sientan separados a comer
si se miran bien
les corren mil hormigas por los pies
ella le regala alguna flor
y él le dibuja en un papel
algo parecido a un corazón
(estribillo)




[Sólo pienso en tí chords][Sólo pienso en tí cifra]
© LaCuerda.net · aviso legal · privacidad · es · en · pt · contacto