Acordes de Guitarra » V »Victor Drija » Mi vida no es vida sin tí (Tab)

Mi vida no es vida sin tí
Victor Drija

Letras, Acordes y Tabs para Guitarra, Bajo y Ukulele

  •  INTRO: SOL                   LA7sus4 ( dos veces)
    SOL
    Ya lo ves, Has tornado mi mundo
    MIm7
    Al reves
                     DO
    Te has alejado y nose por que
      SOL
    Dime de una vez
       LAm                             RE
    Si de nosotros te has cansado tal ves
    RE7
    Oh SI
    SOL
    Puede ser, que lo bueno dura poco
    MIm7
    y tu, ya sabes, que lo nuestro fue tan corto
     DO
    y tan loco a la ves
    SOL
    
  • Intro:  F#7 - D#m7 - F#7 - C#
            |--7-h9-8-
            F#7 - D#m7 - F#7 - C#
    
    F#7
       Ya lo ves
                        D#m7
    has tornado mi mundo al reves
                         B
    te has alejado y no se porque
         A#m
    dime de una vez
            G#m7                       C#sus4 C#
    si de nosotros te has cansado tal vez ohh si
    
    F#7
      puede ser
                               D#m7
    que lo bueno dura poco y tu ya sabes
                                        B
    
  • Intro:
    e|------------------|--------------------|---------------|---------|
    b|------------------|--------3-3---------|---------------|---------|
    g|---2-x--0-0--x----|---2-x--3-3—-3-5---2|--2-x--0-0--x--|--2-X----|
    D|---3-x--0-0--x----|---2-x-----------3--|--3-x--0-0--x--|--2-X----|
    A|---3-x-------x----|---3-x--1-1---------|--3-x-------x--|--3-X----|
    E|-1---x--1-1--x----|--1--x--------------|-1--x--1-1--x--|-1--X----|
    
    
    e|------------------|--------------|-------------|------------|
    b|--3-3--X----------|--------------|-------------|------------|
    g|--3-3--X----------|--------------|-------------|------------|
    D|-------X----------|--------------|-------------|------------|
    A|--1-1--X----------|--------------|-------------|------------|
    E|------------------|--------------|-------------|------------|
    
    
    Verse: ya lo ves has tornado mi mundo ….
    e|------------------|---------------------|---1-1-1------1-1-1---|
    b|------------------|--------3-3--X-------|---1-1-1------1-1-1---|
    g|---2-x--0-0-
  • +
    ¡Colabora con nosotros!
    Envíanos tu versión de esta canción

Letra de Mi vida no es vida sin tí
Ya lo ves, Has tornado mi mundo
Al reves
Te has alejado y nose por que
Dime de una vez
Si de nosotros te has cansado tal ves
Puede ser, que lo bueno dura poco
y tu, ya sabes, que lo nuestro fue tan corto
y tan loco a la ves
divino tambien
cada momento contigo
muero y vuelvo a nacer
mi vida no es vida sin ti
mi corazon ya no quiere latir
y no se lo que hare con este sufrir
porque mi vida no es vida sin ti.
oouuoou
se te ve que no has podido olvidarme
que te hacen, falta mi calor al acostarte
ya contra ti
no pelees borrarme, no puedes
de que me piensas me extrañas
que me amas no lo ocultes amor
oyeme bien
mi vida no es vida sin ti
mi corazon ya no quiere latir
y no se lo que hare con este sufrir
porque mi vida no es vida..
se me hacen enternos los momentos sin ti
yo te anhelo te deseo
quiero contigo siempre estaaaaar
juntos para la eternidaaaa aaa … ououu
para la eternidaaaaad nounou nou uuu oouuuuu
mi vida no es vida sin ti
mi corazon ya no quiere latir
y no se lo que hare con este sufrir
por que mi vida no es vida sin tiii
aquí pasan los dias
y mi vida no es vida sin ti…. Sin tii…
Ya lo vez




[Mi vida no es vida sin tí chords][Mi vida no es vida sin tí cifra]
© LaCuerda.net · aviso legal · privacidad · es · en · pt · contacto