Acordes de Guitarra » V »Victor Drija » Amor a primera vista (Tab)

Amor a primera vista
Victor Drija

Letras, Acordes y Tabs para Guitarra, Bajo y Ukulele

  • E               B
     Aunque te conoci
               C#m
    No hace mucho tiempo
               A
    Siento que te tengo
     B          E
    Algo que decir
                     B
     No te quiero asustar
            C#m
    Pero siento miedo
            A
    De que poco a poco
     B           E
    Vaya a enamorarme
    
                      B
     De tu forma de vivir
                       C#m
    
  •    E  E/D# C#m7  A   B7 G#m C#m
    e|-4-|-4--|-4--|-5-|-5-|-4-|-4--|
    b|-5-|-5--|-5--|-5-|-4-|-4-|-5--|
    g|-4-|-4--|-4--|-6-|-4-|-4-|-6--|
    D|-6-|-6--|-6--|-7-|-7-|-6-|-6--|
    A|-7-|-6--|-4--|-7-|-x-|-6-|-4--|
    E|-x-|-x--|-x--|-5-|-7-|-4-|-x--|
    
    Sino se es bueno pisando notas extrañas con barras
    le recomiendo usar un capotraste en el traste 4
    
    
    
    Intro:
    e|-------------|-------------|---------|---4-5--4-------|
    b|-5---7-5---5-|-5---7-5---5-|-5---7-5-|-7--------7-5-4-|
    g|---4-----4---|---4-----4---|---4-----|----------------|
    D|-------------|-------------|---------|----------------|
    A|-7-----------|-6-----------|-4-------|----------------|
    E|-------------|-------------|---------|----------------|
    
  • +
    ¡Colabora con nosotros!
    Envíanos tu versión de esta canción

Letra de Amor a primera vista
Aunque te conoci
No hace mucho tiempo
Siento que te tengo
Algo que decir
No te quiero asustar
Pero siento miedo
De que poco a poco
Vaya a enamorarme
De tu forma de vivir
Yo que nunca soy asi
Pero despertaste una ilusion
Que crece en mi
De encontrar mi identidad
De alejar mi soledad
De entregarte todo y mucho mas
Que me quieras pedir
No se que sientes por mi
Pero no te apuro
Se que pasas mucho
Y prefiero escucharte reir
No me has llamado mas
Pero no te culpo
Quizas tambien tienes miedo
A enamorarte
De mi forma de querer
Ya no temas mas en ver
Que la vida tiene solo
Cosas lindas para ti
Muestrame que eres real
No me quiero lastimar
Tiemblo cuando pienso
Que tu puedas ser igual
A las demas
Buen Tema!!
Se la quiero Dedicar a una Persona que Quiero
Mucho, Demasiado. Este tema va para ti
♥" Jhovana J. "♥




[Amor a primera vista chords][Amor a primera vista cifra]
© LaCuerda.net · aviso legal · privacidad · es · en · pt · contacto
DINAMICO