Acordes de Guitarra » V »Vertical » Invencible (Tab)

Invencible
Vertical

Letras, Acordes y Tabs para Guitarra, Bajo y Ukulele

  • INTRO C  G  Em  D //
    
    
    VERSO
    
    C            G       Em           D
     Por tu bondad en mí, siempre te alabare
    C            G       Em          D
     Tu gran amor por mi, me hace reír y cantar
    C            G       Em            D
     Por tu perdón en mí, siempre permaneceré
    C            G  Em          D
     Eres tan bueno, quiero saltar y gritar
    
    Am            C     D
     Queremos cantarte
    
    CORO
    
    G    D/F#     Am
    
  •          C         G        Em         D
    
    E --------------3-3-3-3---------------------------------------
    A ----3-3-3-3---5-5-5-5---7-7-7-7---5-5-5-5-------------------
    D ----5-5-4-5---5-5-5-5---9-9-9-9---7-7-7-7-------------------
    G ----5-5-5-5-------------9-9-9-9---7-7-7-7-------------------
    B ------------------------------------------------------------
    e ------------------------------------------------------------
    
            C         G        Em        D
    
    E --------------3-3-3-3---------------------------------------
    A ----3-3-3-3---5-5-5-5---7-7-7-7---5-5-----------------------
    D ----5-5-4-5---5-5-5-5---9-9-9-9---7-7-----------------------
    G ----5-5-5-5-------------9-9-9-9---7-7-----------------------
    B ------------------------------------------------------------
    e ------------------------------------------------------------
    
    ESTROFA:
    
    
  • +
    ¡Colabora con nosotros!
    Envíanos tu versión de esta canción

Letra de Invencible
VERSO
Por tu bondad en mí, siempre te alabare
Tu gran amor por mi, me hace reír y cantar
Por tu perdón en mí, siempre permaneceré
Eres tan bueno, quiero saltar y gritar
Queremos cantarte
Santo eres Dios
Invencible y fuerte
Tu gran amor
Durará por siempre
Invencible Dios
Te cantamos hoy
Por tu gran amor
Te adoraré




[Invencible chords][Invencible cifra]
© LaCuerda.net · aviso legal · privacidad · es · en · pt · contacto
DINAMICO