Acordes de Guitarra » V »Valentín Elizalde » Ebrio de amor (Tab)

Ebrio de amor
Valentín Elizalde

Letras, Acordes y Tabs para Guitarra, Bajo y Ukulele

  • FA         LA#      DO                     FA
    llegue borracho de amor, como todas las noches
                 LA#                DO
    me querras besarme llenarme de amor
                  FA
    sin ningun reproche
               LA#                  DO
    dios mio porque hallo en otro rostro
                  LAm                REm
    la mirada la piel que me vuelve loco
                 SOLm            DO
    quisiera ser otro no pude tampoco 
                      FA
    ser un ebrio de amor.
    
    requinto.
    
    FA          LA#              DO              FA
    tu eres mi vida tu eres mi amor, tu eres mi todo
                    LA#            DO
    
  • e-5--8--8--8--8----6-8--8--6-8--6---6-10-10-8--10---
    B-6--10-10-10-10---8-10-10-8-10-8---8-11-11-10-11---
    G---------------------------------------------------
    
    e-8--10-10-8--10-8----8--8--8--8--8--6--6-8--8--6-5-3--3-5-6-5-3--1-
    B-10-11-11-10-11-10---10-10-10-10-10-8--8-10-10-8-4-5--3-5-6-5-3--1-
    G-----------------------------------------------------------------2-
    D-----------------------------------------------------------------3-
    A-----------------------------------------------------------------3-
    E-----------------------------------------------------------------1-
    
    
    
    
    
    
    FA         LA#      DO                     FA
    llegue borracho de amor, como todas las noches
                 LA#                DO
    me querras besarme llenarme de amor
    
  • +
    ¡Colabora con nosotros!
    Envíanos tu versión de esta canción

Letra de Ebrio de amor
llegue borracho de amor, como todas las noches
me querras besarme llenarme de amor
sin ningun reproche
dios mio porque hallo en otro rostro
la mirada la piel que me vuelve loco
quisiera ser otro no pude tampoco
ser un ebrio de amor.
requinto.
tu eres mi vida tu eres mi amor, tu eres mi todo
que triste me siento por no decidir
te quiero ami modo
dios mio porque hallo en otro rostro
la mirada la piel que me vuelve loco
quisiera ser otro no pude tampoco
ser un ebrio de amor.
ESTA CANCION VA DEDICADA A VIRIDIANA QUE POR ALGUNA U
OTRA RAZON LA SIGO QUERIENDO.
TAMBIEN UN SALUDO A MIS COMPAS DE LA RONDALLA Y
A MIS COMPAS DE LA PREPA Y TAMBIEN A ROGE,JULIO Y NOE.




[Ebrio de amor chords][Ebrio de amor cifra]
© LaCuerda.net · aviso legal · privacidad · es · en · pt · contacto
DINAMICO