Acordes de Guitarra » V »Vago » De que el amor apesta (Tab)

De que el amor apesta
Vago

Letras, Acordes y Tabs para Guitarra, Bajo y Ukulele

  • INTRO (ASI SE ESCUCHA)
    
    |-------------------------------
    |-------------------------10~~~~
    |---10--12--12/10---------------
    |-----------------12------------
    |-------------------------------
    |-------------------------------
    
    |-------------------------------
    |-------------------------------
    |----12^13~~-12-----------------
    |-------------------------------
    |-------------------------------
    |-------------------------------
    
    |-------------------------------------
    |--------------10~-10------15-15-14-14
    |-----10--12--------------------------
    |--12---------------------------------
    |-------------------------------------
    |-------------------------------------
    
    |--------------------------15-15-14-14
    |--------------10~-10-----------------
    |-----10--12--------------------------
    |--12---------------------------------
    |-------------------------------------
    |-------------------------------------
    
    |-------------------------------------
    |-12/14-12---10/12--------------------
  • +
    ¡Colabora con nosotros!
    Envíanos tu versión de esta canción



Video de De que el amor apesta
[]




[De que el amor apesta chords][De que el amor apesta cifra]
© LaCuerda.net · aviso legal · privacidad · es · en · pt · contacto