Acordes de Guitarra » U »La Uvi » La Policía (Tab)

La Policía
La Uvi

Letras, Acordes y Tabs para Guitarra, Bajo y Ukulele

  •     Am               F  G
    g|-------------7-------------
    D|--7---7-9-10---10-9--3--5--
    
    (2 veces)
    
    
    Am / F D E (x2)
     Am
    Yo me paso todo el día
    F               D   E
    en un coche de policía
     Am
    recorriendo todo Madrid
    F             D    E
    en muy buena compañía
    
    Am    F
    ¡No! ¡No!
    
    
  • 1|------------------------------------------------------------------------
    2|------------------------------------------------------------------------
    3|------------------------------------------------------------------------
    4|-0-5-------------0-5-------------0-5-------------0-5-------------0-5----
    
    
    1|---------------------------------------------------------------------
    2|---------------------------------------------------------------------
    3|---------------------------------------------------------------------
    4|-5-5-5-5-5-5-5-5-5-5-5-5-5-5-5-5-5-5-5-5-5-5-5-5-5-5-5-5-5-5-5-5-----
    
    
    1|---------------------------------------------------------------------
    2|---------------------------------------------------------------------
    3|-----------------------------------------------------5-5-6-6-7-7-----
    4|-5-5-5-5-5-5-5-5-5-5-5-5-5-5-5-5-5-5-5-5-5-5-5-5-5-5-----------------
    
    
    1|---------------------------------------------------------------------
    2|--------------------------------------------
  • +
    ¡Colabora con nosotros!
    Envíanos tu versión de esta canción

Letra de La Policía
(2 veces)
Yo me paso todo el día
en un coche de policía
recorriendo todo Madrid
en muy buena compañía
¡No! ¡No!
¡No! ¡No!
(2 veces)
Me han quitado las cadenas
me han metido en más problemas
han abierto mis maletas,
no encontraron las recetas
Yo me paso todo el día
en un coche de policía
recorriendo todo Madrid
en muy buena compañía
¡No! ¡No!
¡No! ¡No!

Video de La Policía
[]




[La Policía chords][La Policía cifra]
© LaCuerda.net · aviso legal · privacidad · es · en · pt · contacto