Acordes de Guitarra » U »El Ultimo ke zierre » Tu me vicias (Tab)
  • Letra y Acordes
    Intro: DO LA FA SOL
    
    
        DO
    Kuando te veo me pierdo
        LA
    Kuando te veo yo tiemblo
        FA
    Kuando te veo me pierdo
        SOL
    Kuando te veo yo tiemblo
          DO    LA
    Porke tu me vicias
    FA     SOL
    tu me vicias
    
          DO    LA
    Porke tu me vicias
    FA     SOL
    tu me vicias
    
  • Tablatura
    ----------------
    ----------------
    -5--------------  x2
    -5---7---3---5--
    -3---7---3---5--
    -----5---1---3--
     intro
    
    son las mismas notas para la distorcion y
    el resto de la cancion
    
    
    
    
                        solo
    ------------------------------------------------
    ------------------------------------------------
    ------------------------------------------------
    -10-10-10-10-10-10-10-10-10-7-5-7-7-7-7-7-7-5-7-
    ------------------------------------------------
    ------------------------------------------------
    
    -----------------------------------
    -----------------------------------
    --------9-9-9-9-9-7-9-7-7-7-7-9-9--
    5-5-5-7----------------------------
    -----------------------------------
    -----------------------------------
    
    
    
    ----------------------------------------------------------
    -9b-9-7---------------------------------------------------
    ------9-7-7-7-7-9-7---------------------------------7-9-7-
    ---------------------9-7-7-9--10-10-10-10-10-10-10--------
    ------------------------------------------
  • +
    ¡Colabora con nosotros!
    Envíanos tu versión de esta canción

Letra de Tu me vicias
Kuando te veo me pierdo
Kuando te veo yo tiemblo
Kuando te veo me pierdo
Kuando te veo yo tiemblo
Porke tu me vicias
tu me vicias
Porke tu me vicias
tu me vicias
te vi en akel garito
tus ojos eran grandes
me diste un portazo
kuando te atravesaste
me diste una patada
en mi parte mas preciada
pero aun asi te busko
pero aun asi te busko
porke tu me vicias
tu me vicias.
tu me vicias
tu me vicias
te vi en akel garito
tus ojos eran grandes
me diste un portazo
kuando te atravesaste
me diste una patada
en mi parte mas preciada
pero aun asi te busko
pero aun asi te busko
porke tu me vicias
tu me vicias



© LaCuerda.net · aviso legal · privacidad · contacto
DINAMICO