Acordes de Guitarra » T »Los Tres Reyes » Mujeres Divinas (Tab)

Mujeres Divinas
Los Tres Reyes

Letras, Acordes y Tabs para Guitarra, Bajo y Ukulele

  •              **   DOble rasgueado
                 X-X  Medio tiempo cada acorde
                 Shh  Silencio
    
    -Acordes Hasta abajo
    
    Los acordes del requinto son:
    
    Am Dm E7 Am Am** Am/B** Am/C** Am/C**
    Dm** Dm/E** Dm/F** Dm** E7* Am
    
    
         Am*                   F
    Hablando de mujeres y traiciones,
        G7                       C
    Se fueron consumiendo las botellas,
        Am           Am--G7--F--E
    Pidieron que cantara mis canciones,
                                     Am
    Y yo cante unas dos en contra de ellas,
    
  • DESDE TUXPAN VERACRUZ
    
    Se toca con requinto o guitarra el en 5º traste
    
    CHEQUENLA VALE LA PENA NO TIENE ERRORES
    Y SI LES GUSTO NO SE LES OLVIDE VOTAR CON UN 10
    
    
    a|---------------------------------------||
    E|-0h1p0---0-12-10-8-7-7h8p7--5--0-------||
    C|-------3-------------------------0-----||
    G|---------------------------------------||
    D|---------------------------------------||
    A|---------------------------------------||
    
    a|-0h1p0---0-12-10-8-7-7h8p7-5-7-3-5-0---||
    E|-------4-----------------------------1-||
    C|---------------------------------------||
    G|---------------------------------------||
    D|---------------------------------------||
    A|---------------------------------------||
    
    a|--------2-----7---7--7p5-4-7p5-4-5p3-3-2-3-5-7-------------------------||
    E|--2-3-4---4s7---7----7---6-7---6-5---5-4-5-7-8-------------------------||
    C|-----------------------------------------------------------------------||
    G|-----------------------------------------------------------------------||
    D|-
  • Esta canción es buena y se la dedico a mi madre “MARIANA” y a mis amigas
    Karla, Nathaly, Jhoana y mis compañeras de la FF.CC.MM. de la Universidad
    de Cuenca.
    
    Se toca en requinto.
    
    A—------------7--------------------7---------1P0-----0--12------------
    E--1P0-----0-----10--8--1P0-----0-----10--8-------4---------15--13----
    C-------3--------------------3----------------------------------------
    G---------------------------------------------------------------------
    D---------------------------------------------------------------------
    A---------------------------------------------------------------------
    
    A--1P0-----0--12-----------------------------------7-----7--7P5--4--5-
    E-------4---------15--13--1P0-----0--2--3--4--4H7-----7-----7P7--6--7-
    C------------------------------3--------------------------------------
    G---------------------------------------------------------------------
    D---------------------------------------------------------------------
    A-------------
  • +
    ¡Colabora con nosotros!
    Envíanos tu versión de esta canción

Letra de Mujeres Divinas
X-X Medio tiempo cada acorde
Shh Silencio
-Acordes Hasta abajo
Los acordes del requinto son:
Hablando de mujeres y traiciones,
Se fueron consumiendo las botellas,
Pidieron que cantara mis canciones,
Y yo cante unas dos en contra de ellas,
De pronto que se acerca un caballero,
Su pelo ya pintaba algunas canas,
Me dijo le suplico compañero,
Que no hable en mi presencia de las damas,
Le dije que nosotros simplemente,
Hablamos de lo mal que nos pagaron,
Si alguien opinaba diferente,
Seria porque jamás lo traicionaron.
Seria porque jamás lo traicionaron.
REQUINTO:
Dm' Dm/E' Dm/F' Dm' E7 Am
Me dijo yo soy uno de los seres,
Que más ha soportado los fracasos,
Y siempre me dejaron las mujeres,
Llorando con el alma hecha pedazos,
Y nunca le reprocho mis heridas,
Se tiene que sufrir cuando se ama,
Las horas más hermosas de mi vida,
Las he pasado a lado de una dama,
Pudiéramos morir en las cantinas,
Y nunca lograríamos olvidarlas,
Mujeres oh mujeres tan divinas,
No queda otro camino que adorarlas
No queda otro camino que adorarlas.
ACORDES:
Dudas: facebook.com/gabogabrielg




[Mujeres Divinas chords][Mujeres Divinas cifra]
© LaCuerda.net · aviso legal · privacidad · es · en · pt · contacto
DINAMICO